  0
SECTION
  2
HEADER
  9
$ACADVER
  1
AC1009
  9
$DWGCODEPAGE
  3
dos932
  9
$INSBASE
 10
0.0
 20
0.0
 30
0.0
  9
$EXTMIN
 10
-179.99999999999997
 20
-270.59544499999993
 30
0.0
  9
$EXTMAX
 10
179.99999999999997
 20
263.53181500000005
 30
0.0
  9
$LIMMIN
 10
0.0
 20
0.0
  9
$LIMMAX
 10
0.0
 20
0.0
  9
$ORTHOMODE
 70
               0
  9
$REGENMODE
 70
               1
  9
$FILLMODE
 70
               1
  9
$QTEXTMODE
 70
               0
  9
$MIRRTEXT
 70
               1
  9
$DRAGMODE
 70
               2
  9
$LTSCALE
 40
10.16
  9
$OSMODE
 70
               0
  9
$ATTMODE
 70
               1
  9
$TEXTSIZE
 40
0.2
  9
$TRACEWID
 40
1.0
  9
$TEXTSTYLE
  7
STANDARD
  9
$CLAYER
  8
DATA
  9
$CELTYPE
  6
CONTINUOUS
  9
$CECOLOR
 62
             256
  9
$DIMSCALE
 40
1.0
  9
$DIMASZ
 40
0.18
  9
$DIMEXO
 40
0.0625
  9
$DIMDLI
 40
0.38
  9
$DIMRND
 40
0.0
  9
$DIMDLE
 40
0.0
  9
$DIMEXE
 40
0.18
  9
$DIMTP
 40
0.0
  9
$DIMTM
 40
0.0
  9
$DIMTXT
 40
0.18
  9
$DIMCEN
 40
0.09
  9
$DIMTSZ
 40
0.0
  9
$DIMTOL
 70
               0
  9
$DIMLIM
 70
               0
  9
$DIMTIH
 70
               1
  9
$DIMTOH
 70
               1
  9
$DIMSE1
 70
               0
  9
$DIMSE2
 70
               0
  9
$DIMTAD
 70
               0
  9
$DIMZIN
 70
               0
  9
$DIMBLK
  1

  9
$DIMASO
 70
               1
  9
$DIMSHO
 70
               1
  9
$DIMPOST
  1

  9
$DIMAPOST
  1

  9
$DIMALT
 70
               0
  9
$DIMALTD
 70
               2
  9
$DIMALTF
 40
25.399999999999999
  9
$DIMLFAC
 40
1.0
  9
$DIMTOFL
 70
               0
  9
$DIMTVP
 40
0.0
  9
$DIMTIX
 70
               0
  9
$DIMSOXD
 70
               0
  9
$DIMSAH
 70
               0
  9
$DIMBLK1
  1

  9
$DIMBLK2
  1

  9
$DIMSTYLE
  2
STANDARD
  9
$DIMCLRD
 70
               0
  9
$DIMCLRE
 70
               0
  9
$DIMCLRT
 70
               0
  9
$DIMTFAC
 40
1.0
  9
$DIMGAP
 40
0.09
  9
$LUNITS
 70
               2
  9
$LUPREC
 70
               4
  9
$AXISMODE
 70
               0
  9
$AXISUNIT
 10
0.0
 20
0.0
  9
$SKETCHINC
 40
0.1
  9
$FILLETRAD
 40
0.0
  9
$AUNITS
 70
               0
  9
$AUPREC
 70
               0
  9
$MENU
  1
acad
  9
$ELEVATION
 40
0.0
  9
$PELEVATION
 40
0.0
  9
$THICKNESS
 40
0.0
  9
$LIMCHECK
 70
               0
  9
$BLIPMODE
 70
               0
  9
$CHAMFERA
 40
0.0
  9
$CHAMFERB
 40
0.0
  9
$SKPOLY
 70
               0
  9
$TDCREATE
 40
2457381.493275463
  9
$TDUPDATE
 40
2457381.493275463
  9
$TDINDWG
 40
0.0000000000
  9
$TDUSRTIMER
 40
0.0000000000
  9
$USRTIMER
 70
               1
  9
$ANGBASE
 50
0.0
  9
$ANGDIR
 70
               0
  9
$PDMODE
 70
               1
  9
$PDSIZE
 40
-2.0
  9
$PLINEWID
 40
0.0
  9
$COORDS
 70
               0
  9
$SPLFRAME
 70
               0
  9
$SPLINETYPE
 70
               6
  9
$SPLINESEGS
 70
               8
  9
$ATTDIA
 70
               0
  9
$ATTREQ
 70
               1
  9
$HANDLING
 70
               1
  9
$HANDSEED
  5
25F
  9
$SURFTAB1
 70
               6
  9
$SURFTAB2
 70
               6
  9
$SURFTYPE
 70
               6
  9
$SURFU
 70
               6
  9
$SURFV
 70
               6
  9
$UCSNAME
  2

  9
$UCSORG
 10
0.0
 20
0.0
 30
0.0
  9
$UCSXDIR
 10
1.0
 20
0.0
 30
0.0
  9
$UCSYDIR
 10
0.0
 20
1.0
 30
0.0
  9
$PUCSNAME
  2

  9
$PUCSORG
 10
0.0
 20
0.0
 30
0.0
  9
$PUCSXDIR
 10
1.0
 20
0.0
 30
0.0
  9
$PUCSYDIR
 10
0.0
 20
1.0
 30
0.0
  9
$USERI1
 70
               0
  9
$USERI2
 70
               0
  9
$USERI3
 70
               0
  9
$USERI4
 70
               0
  9
$USERI5
 70
               0
  9
$USERR1
 40
0.0
  9
$USERR2
 40
0.0
  9
$USERR3
 40
0.0
  9
$USERR4
 40
0.0
  9
$USERR5
 40
0.0
  9
$WORLDVIEW
 70
               1
  9
$SHADEDGE
 70
               3
  9
$SHADEDIF
 70
              70
  9
$TILEMODE
 70
               1
  9
$MAXACTVP
 70
              64
  9
$PINSBASE
 10
0.0
 20
0.0
 30
0.0
  9
$PLIMCHECK
 70
               0
  9
$PEXTMIN
 10
1.0000000000000000E+20
 20
1.0000000000000000E+20
 30
1.0000000000000000E+20
  9
$PEXTMAX
 10
-1.0000000000000000E+20
 20
-1.0000000000000000E+20
 30
-1.0000000000000000E+20
  9
$PLIMMIN
 10
0.0
 20
0.0
  9
$PLIMMAX
 10
12.0
 20
9.0
  9
$UNITMODE
 70
               0
  9
$VISRETAIN
 70
               0
  9
$PLINEGEN
 70
               1
  9
$PSLTSCALE
 70
               0
  9
$TREEDEPTH
 70
            3020
  0
ENDSEC
  0
SECTION
  2
TABLES
  0
TABLE
  2
VPORT
 70
               1
  0
VPORT
  2
*ACTIVE
 70
               0
 10
0.0
 20
0.0
 11
1.0
 21
1.0
 12
0.0
 22
-3.5318149999999378
 13
0.0
 23
0.0
 14
1.0
 24
1.0
 15
0.0
 25
0.0
 16
0.0
 26
0.0
 36
1.0
 17
0.0
 27
0.0
 37
0.0
 40
534.12725999999998
 41
0.688564
 42
50.0
 43
0.0
 44
0.0
 50
0.0
 51
0.0
 71
               0
 72
            2000
 73
               1
 74
               1
 75
               0
 76
               0
 77
               0
 78
               0
  0
ENDTAB
  0
TABLE
  2
LTYPE
 70
              11
  0
LTYPE
  2
CONTINUOUS
 70
              64
  3
Solid line
 72
              65
 73
               0
 40
0.0
  0
LTYPE
  2
STYLE_01
 70
               0
  3

 72
              65
 73
               2
 40
0.4166412353515625
 49
0.208282470703125
 49
-0.2083587646484375
  0
LTYPE
  2
STYLE_02
 70
               0
  3

 72
              65
 73
               2
 40
0.694427490234375
 49
0.4860687255859375
 49
-0.2083587646484375
  0
LTYPE
  2
STYLE_03
 70
               0
  3

 72
              65
 73
               2
 40
1.25
 49
1.0416412353515625
 49
-0.2083587646484375
  0
LTYPE
  2
STYLE_04
 70
               0
  3

 72
              65
 73
               2
 40
1.5277099609375
 49
1.319427490234375
 49
-0.208282470703125
  0
LTYPE
  2
STYLE_05
 70
               0
  3

 72
              65
 73
               2
 40
0.208282470703125
 49
0.069427490234375
 49
-0.13885498046875
  0
LTYPE
  2
STYLE_06
 70
               0
  3

 72
              65
 73
               4
 40
1.0416412353515625
 49
0.625
 49
-0.208282470703125
 49
0.069427490234375
 49
-0.1389312744140625
  0
LTYPE
  2
STYLE_07
 70
               0
  3

 72
              65
 73
               6
 40
1.875
 49
0.625
 49
-0.208282470703125
 49
0.625
 49
-0.2083587646484375
 49
0.069427490234375
 49
-0.1389312744140625
  0
LTYPE
  2
STYLE_08
 70
               0
  3

 72
              65
 73
               6
 40
1.25
 49
0.625
 49
-0.208282470703125
 49
0.069427490234375
 49
-0.1389312744140625
 49
0.069427490234375
 49
-0.1389312744140625
  0
LTYPE
  2
STYLE_09
 70
               0
  3

 72
              65
 73
               4
 40
5.0
 49
3.75
 49
-0.2777862548828125
 49
0.694427490234375
 49
-0.2777862548828125
  0
LTYPE
  2
STYLE_10
 70
               0
  3

 72
              65
 73
               6
 40
5.9375
 49
3.75
 49
-0.2777862548828125
 49
0.694427490234375
 49
-0.2777862548828125
 49
0.625
 49
-0.3125
  0
ENDTAB
  0
TABLE
  2
LAYER
 70
               6
  0
LAYER
  2
0
 70
               0
 62
               7
  6
CONTINUOUS
  0
LAYER
  2
HIBINO-BASE
 70
               0
 62
               7
  6
CONTINUOUS
  0
LAYER
  2
PATTERN_FILL
 70
               0
 62
               7
  6
CONTINUOUS
  0
LAYER
  2
SPEC
 70
               0
 62
               7
  6
CONTINUOUS
  0
LAYER
  2
DIMNSIONS
 70
               0
 62
               7
  6
CONTINUOUS
  0
LAYER
  2
DATA
 70
               0
 62
               7
  6
CONTINUOUS
  0
ENDTAB
  0
TABLE
  2
STYLE
 70
               2
  0
STYLE
  2
STANDARD
 70
               0
 40
0.0
 41
1.0
 50
0.0
 71
               0
 42
0.0
  3
txt
  4
BIGFONT.SHX
  0
STYLE
  2
_______
 70
               0
 40
0.0
 41
1.0
 50
0.0
 71
               0
 42
0.0
  3

  4
ＭＳ ゴシック
  0
ENDTAB
  0
TABLE
  2
VIEW
 70
               0
  0
ENDTAB
  0
TABLE
  2
UCS
 70
               0
  0
ENDTAB
  0
TABLE
  2
APPID
 70
               1
  0
APPID
  2
ACAD
 70
               0
  0
ENDTAB
  0
TABLE
  2
DIMSTYLE
 70
               1
  0
DIMSTYLE
  2
STANDARD
 70
               0
  3

  4

  5

  6

  7

 40
1.0
 41
0.18
 42
0.0625
 43
0.38
 44
0.18
 45
0.0
 46
0.0
 47
0.0
 48
0.0
 71
               0
 72
               0
 73
               1
 74
               1
 75
               0
 76
               0
 77
               0
 78
               0
140
0.18
141
0.09
142
0.0
143
25.399999999999999
144
1.0
145
0.0
146
1.0
147
0.09
170
               0
171
               2
172
               0
173
               0
174
               0
175
               0
176
               0
177
               0
178
               0
  0
ENDTAB
  0
ENDSEC
  0
SECTION
  2
BLOCKS
  0
ENDSEC
  0
SECTION
  2
ENTITIES
  0
LINE
  8
HIBINO-BASE
  6
CONTINUOUS
 62
               7
  5
2D
 10
-179.99999999999997
 20
263.53181500000005
 30
0.0
 11
179.99999999999997
 21
263.53181500000005
 31
0.0
  0
LINE
  8
HIBINO-BASE
  6
CONTINUOUS
 62
               7
  5
2E
 10
179.99999999999997
 20
-256.46818500000001
 30
0.0
 11
-179.99999999999997
 21
-256.46818500000001
 31
0.0
  0
LINE
  8
HIBINO-BASE
  6
CONTINUOUS
 62
               7
  5
2F
 10
-179.99999999999997
 20
-256.46818500000001
 30
0.0
 11
-179.99999999999997
 21
263.53181500000005
 31
0.0
  0
LINE
  8
HIBINO-BASE
  6
CONTINUOUS
 62
               7
  5
30
 10
179.99999999999997
 20
263.53181500000005
 30
0.0
 11
179.99999999999997
 21
-256.46818500000001
 31
0.0
  0
LINE
  8
HIBINO-BASE
  6
CONTINUOUS
 62
               7
  5
31
 10
0.0000000000000142
 20
-211.46818500000001
 30
0.0
 11
179.99999999999997
 21
-211.46818500000001
 31
0.0
  0
LINE
  8
HIBINO-BASE
  6
CONTINUOUS
 62
               7
  5
32
 10
0.0000000000000142
 20
-256.46818500000001
 30
0.0
 11
0.0000000000000142
 21
-211.46818500000001
 31
0.0
  0
TEXT
  8
HIBINO-BASE
 62
               7
  5
33
 10
1.8000000000000256
 20
-217.0782383333333
 30
0.0
 40
3.2576822916666663
  1
NOTE
  7
_______
 11
1.8000000000000256
 21
-213.22788937499999
 31
0.0
 73
               3
  0
LINE
  8
HIBINO-BASE
  6
CONTINUOUS
 62
               7
  5
34
 10
70.000000000000043
 20
-256.46818500000001
 30
0.0
 11
70.000000000000043
 21
-211.46818500000001
 31
0.0
  0
TEXT
  8
HIBINO-BASE
 62
               7
  5
35
 10
71.799999999999997
 20
-217.0782383333333
 30
0.0
 40
3.2576822916666663
  1
TITLE
  7
_______
 11
71.799999999999997
 21
-213.22788937499999
 31
0.0
 73
               3
  0
LINE
  8
HIBINO-BASE
  6
CONTINUOUS
 62
               7
  5
36
 10
0.0000000000000142
 20
-236.46818500000001
 30
0.0
 11
179.99999999999997
 21
-236.46818500000001
 31
0.0
  0
TEXT
  8
HIBINO-BASE
 62
               7
  5
37
 10
96.799999999999983
 20
-241.9655983333333
 30
0.0
 40
3.2576822916666663
  1
DRAWN
  7
_______
 11
96.799999999999983
 21
-238.11524937499999
 31
0.0
 73
               3
  0
TEXT
  8
HIBINO-BASE
 62
               7
  5
38
 10
46.799999999999997
 20
-241.9655983333333
 30
0.0
 40
3.2576822916666663
  1
DATE
  7
_______
 11
46.799999999999997
 21
-238.11524937499999
 31
0.0
 73
               3
  0
TEXT
  8
HIBINO-BASE
 62
               7
  5
39
 10
26.799999999999997
 20
-241.9655983333333
 30
0.0
 40
3.2576822916666663
  1
SCALE
  7
_______
 11
26.799999999999997
 21
-238.11524937499999
 31
0.0
 73
               3
  0
TEXT
  8
HIBINO-BASE
 62
               7
  5
3A
 10
71.799999999999997
 20
-241.9655983333333
 30
0.0
 40
3.2576822916666663
  1
DESIGN
  7
_______
 11
71.799999999999997
 21
-238.11524937499999
 31
0.0
 73
               3
  0
TEXT
  8
HIBINO-BASE
 62
               7
  5
3B
 10
146.79999999999998
 20
-241.9655983333333
 30
0.0
 40
3.2576822916666663
  1
DRAWING NO.
  7
_______
 11
146.79999999999998
 21
-238.11524937499999
 31
0.0
 73
               3
  0
TEXT
  8
HIBINO-BASE
 62
               7
  5
3C
 10
121.79999999999998
 20
-241.9655983333333
 30
0.0
 40
3.2576822916666663
  1
CHECK
  7
_______
 11
121.79999999999998
 21
-238.11524937499999
 31
0.0
 73
               3
  0
LINE
  8
HIBINO-BASE
  6
CONTINUOUS
 62
               7
  5
3D
 10
28.750000000000014
 20
-253.96818500000001
 30
0.0
 11
36.250000000000043
 21
-246.46818500000001
 31
0.0
  0
TEXT
  8
HIBINO-BASE
 62
               7
  5
3E
 10
27.500000000000014
 20
-249.27873833333334
 30
0.0
 40
3.2576822916666663
  1
1
  7
_______
 11
27.500000000000014
 21
-245.42838937500002
 31
0.0
 73
               3
  0
LINE
  8
HIBINO-BASE
  6
CONTINUOUS
 62
               7
  5
3F
 10
25.000000000000014
 20
-256.46818500000001
 30
0.0
 11
25.000000000000014
 21
-236.46818500000001
 31
0.0
  0
LINE
  8
HIBINO-BASE
  6
CONTINUOUS
 62
               7
  5
40
 10
44.999999999999986
 20
-256.46818500000001
 30
0.0
 11
44.999999999999986
 21
-236.46818500000001
 31
0.0
  0
LINE
  8
HIBINO-BASE
  6
CONTINUOUS
 62
               7
  5
41
 10
94.999999999999972
 20
-236.46818500000001
 30
0.0
 11
94.999999999999972
 21
-256.46818500000001
 31
0.0
  0
LINE
  8
HIBINO-BASE
  6
CONTINUOUS
 62
               7
  5
42
 10
145.00000000000003
 20
-236.46818500000001
 30
0.0
 11
145.00000000000003
 21
-256.46818500000001
 31
0.0
  0
LINE
  8
HIBINO-BASE
  6
CONTINUOUS
 62
               7
  5
43
 10
119.99999999999997
 20
-256.46818500000001
 30
0.0
 11
119.99999999999997
 21
-236.46818500000001
 31
0.0
  0
TEXT
  8
HIBINO-BASE
 62
               7
  5
44
 10
98.011620022069252
 20
-251.33355833333329
 30
0.0
 40
3.2576822916666663
  1
N.Sasaki
  7
_______
 11
98.011620022069252
 21
-247.48320937499997
 31
0.0
 73
               3
  0
TEXT
  8
HIBINO-BASE
 62
               7
  5
45
 10
7.7666666666667226
 20
-253.70151833333333
 30
0.0
 40
6.5153645833333327
  1
A4
  7
_______
 11
7.7666666666667226
 21
-246.00082041666664
 31
0.0
 73
               3
  0
TEXT
  8
HIBINO-BASE
 62
               7
  5
46
 10
1.9166666666666714
 20
-242.29976166666663
 30
0.0
 40
3.2576822916666663
  1
PAPER SIZE
  7
_______
 11
1.9166666666666714
 21
-238.44941270833331
 31
0.0
 73
               3
  0
TEXT
  8
HIBINO-BASE
 62
               7
  5
47
 10
-165.63199999999995
 20
-270.59544499999993
 30
0.0
 40
7.2000883593749991
  1
Hibino Corporation
  7
_______
 11
-165.63199999999995
 21
-262.08545224062493
 31
0.0
 73
               3
  0
TEXT
  8
HIBINO-BASE
 62
               7
  5
48
 10
100.13678000000002
 20
-270.59544499999993
 30
0.0
 40
7.2000883593749991
  1
ヒビノ株式会社
  7
_______
 11
100.13678000000002
 21
-262.08545224062493
 31
0.0
 73
               3
  0
TEXT
  8
HIBINO-BASE
 62
               7
  5
49
 10
46.713079999999991
 20
-251.33355833333334
 30
0.0
 40
3.2576822916666663
  1
'15.12.
  7
_______
 11
46.713079999999991
 21
-247.48320937500003
 31
0.0
 73
               3
  0
TEXT
  8
HIBINO-BASE
 62
               7
  5
4A
 10
35.0
 20
-253.02873833333334
 30
0.0
 40
3.2576822916666663
  1
2
  7
_______
 11
35.0
 21
-249.17838937500002
 31
0.0
 73
               3
  0
LINE
  8
PATTERN_FILL
  6
CONTINUOUS
 62
               7
  5
4B
 10
-94.790873570753547
 20
59.742326114768723
 30
0.0
 11
-91.899691705101418
 21
64.75
 31
0.0
  0
LINE
  8
PATTERN_FILL
  6
CONTINUOUS
 62
               7
  5
4C
 10
-95.473448536232695
 20
54.229944575662067
 30
0.0
 11
-89.399691705101418
 21
64.75
 31
0.0
  0
LINE
  8
PATTERN_FILL
  6
CONTINUOUS
 62
               7
  5
4D
 10
-96.156023501711843
 20
48.71756303655544
 30
0.0
 11
-86.899691705101418
 21
64.75
 31
0.0
  0
LINE
  8
PATTERN_FILL
  6
CONTINUOUS
 62
               7
  5
4E
 10
-96.838598467190991
 20
43.205181497448805
 30
0.0
 11
-84.399691705101418
 21
64.75
 31
0.0
  0
LINE
  8
PATTERN_FILL
  6
CONTINUOUS
 62
               7
  5
4F
 10
-97.521173432670139
 20
37.692799958342164
 30
0.0
 11
-81.899691705101418
 21
64.75
 31
0.0
  0
LINE
  8
PATTERN_FILL
  6
CONTINUOUS
 62
               7
  5
50
 10
-98.20374839814923
 20
32.180418419235558
 30
0.0
 11
-79.399691705101418
 21
64.75
 31
0.0
  0
LINE
  8
PATTERN_FILL
  6
CONTINUOUS
 62
               7
  5
51
 10
-98.886323363628378
 20
26.66803688012893
 30
0.0
 11
-76.899691705101418
 21
64.75
 31
0.0
  0
LINE
  8
PATTERN_FILL
  6
CONTINUOUS
 62
               7
  5
52
 10
-96.916352203496785
 20
25.749999999999993
 30
0.0
 11
-74.399691705101418
 21
64.75
 31
0.0
  0
LINE
  8
PATTERN_FILL
  6
CONTINUOUS
 62
               7
  5
53
 10
-94.416352203496785
 20
25.749999999999993
 30
0.0
 11
-71.899691705101418
 21
64.75
 31
0.0
  0
LINE
  8
PATTERN_FILL
  6
CONTINUOUS
 62
               7
  5
54
 10
-91.916352203496785
 20
25.749999999999986
 30
0.0
 11
-69.399691705101418
 21
64.75
 31
0.0
  0
LINE
  8
PATTERN_FILL
  6
CONTINUOUS
 62
               7
  5
55
 10
-97.088854520680911
 20
12.460836165447247
 30
0.0
 11
-95.189854895393069
 21
15.749999999999989
 31
0.0
  0
LINE
  8
PATTERN_FILL
  6
CONTINUOUS
 62
               7
  5
56
 10
-89.416352203496785
 20
25.749999999999993
 30
0.0
 11
-66.899691705101418
 21
64.75
 31
0.0
  0
LINE
  8
PATTERN_FILL
  6
CONTINUOUS
 62
               7
  5
57
 10
-96.643919829674701
 20
8.9013586373977134
 30
0.0
 11
-92.689854895393069
 21
15.749999999999993
 31
0.0
  0
LINE
  8
PATTERN_FILL
  6
CONTINUOUS
 62
               7
  5
58
 10
-86.916352203496785
 20
25.749999999999993
 30
0.0
 11
-64.399691705101418
 21
64.75
 31
0.0
  0
LINE
  8
PATTERN_FILL
  6
CONTINUOUS
 62
               7
  5
59
 10
-94.80865704891005
 20
7.75
 30
0.0
 11
-90.189854895393069
 21
15.749999999999993
 31
0.0
  0
LINE
  8
PATTERN_FILL
  6
CONTINUOUS
 62
               7
  5
5A
 10
-84.416352203496785
 20
25.749999999999986
 30
0.0
 11
-61.899691705101418
 21
64.75
 31
0.0
  0
LINE
  8
PATTERN_FILL
  6
CONTINUOUS
 62
               7
  5
5B
 10
-92.30865704891005
 20
7.7499999999999858
 30
0.0
 11
-87.689854895393069
 21
15.749999999999989
 31
0.0
  0
LINE
  8
PATTERN_FILL
  6
CONTINUOUS
 62
               7
  5
5C
 10
-81.916352203496785
 20
25.749999999999993
 30
0.0
 11
-59.399691705101418
 21
64.75
 31
0.0
  0
LINE
  8
PATTERN_FILL
  6
CONTINUOUS
 62
               7
  5
5D
 10
-89.80865704891005
 20
7.7499999999999858
 30
0.0
 11
-85.189854895393069
 21
15.749999999999989
 31
0.0
  0
LINE
  8
PATTERN_FILL
  6
CONTINUOUS
 62
               7
  5
5E
 10
-79.416352203496785
 20
25.749999999999993
 30
0.0
 11
-57.160358672758889
 21
64.298511568162354
 31
0.0
  0
LINE
  8
PATTERN_FILL
  6
CONTINUOUS
 62
               7
  5
5F
 10
-87.30865704891005
 20
7.7499999999999858
 30
0.0
 11
-82.689854895393069
 21
15.749999999999986
 31
0.0
  0
LINE
  8
PATTERN_FILL
  6
CONTINUOUS
 62
               7
  5
60
 10
-76.916352203496785
 20
25.749999999999986
 30
0.0
 11
-55.745913253099616
 21
62.418275880623177
 31
0.0
  0
LINE
  8
PATTERN_FILL
  6
CONTINUOUS
 62
               7
  5
61
 10
-84.80865704891005
 20
7.75
 30
0.0
 11
-80.189854895393069
 21
15.749999999999989
 31
0.0
  0
LINE
  8
PATTERN_FILL
  6
CONTINUOUS
 62
               7
  5
62
 10
-74.416352203496785
 20
25.75
 30
0.0
 11
-55.135264111989159
 21
59.145824199702524
 31
0.0
  0
LINE
  8
PATTERN_FILL
  6
CONTINUOUS
 62
               7
  5
63
 10
-82.30865704891005
 20
7.75
 30
0.0
 11
-77.689854895393069
 21
15.749999999999989
 31
0.0
  0
LINE
  8
PATTERN_FILL
  6
CONTINUOUS
 62
               7
  5
64
 10
-71.916352203496785
 20
25.749999999999993
 30
0.0
 11
-54.693770911420188
 21
55.58038583536203
 31
0.0
  0
LINE
  8
PATTERN_FILL
  6
CONTINUOUS
 62
               7
  5
65
 10
-79.80865704891005
 20
7.7499999999999858
 30
0.0
 11
-75.189854895393069
 21
15.75
 31
0.0
  0
LINE
  8
PATTERN_FILL
  6
CONTINUOUS
 62
               7
  5
66
 10
-69.416352203496785
 20
25.75
 30
0.0
 11
-54.252277710851104
 21
52.014947471021536
 31
0.0
  0
LINE
  8
PATTERN_FILL
  6
CONTINUOUS
 62
               7
  5
67
 10
-77.30865704891005
 20
7.7499999999999929
 30
0.0
 11
-72.689854895393069
 21
15.749999999999993
 31
0.0
  0
LINE
  8
PATTERN_FILL
  6
CONTINUOUS
 62
               7
  5
68
 10
-66.916352203496785
 20
25.749999999999993
 30
0.0
 11
-53.810784510282133
 21
48.449509106681084
 31
0.0
  0
LINE
  8
PATTERN_FILL
  6
CONTINUOUS
 62
               7
  5
69
 10
-74.80865704891005
 20
7.7499999999999929
 30
0.0
 11
-70.189854895393069
 21
15.749999999999989
 31
0.0
  0
LINE
  8
PATTERN_FILL
  6
CONTINUOUS
 62
               7
  5
6A
 10
-64.416352203496785
 20
25.75
 30
0.0
 11
-53.369291309713162
 21
44.884070742340576
 31
0.0
  0
LINE
  8
PATTERN_FILL
  6
CONTINUOUS
 62
               7
  5
6B
 10
-72.30865704891005
 20
7.7499999999999858
 30
0.0
 11
-67.689854895393069
 21
15.749999999999989
 31
0.0
  0
LINE
  8
PATTERN_FILL
  6
CONTINUOUS
 62
               7
  5
6C
 10
-61.916352203496785
 20
25.749999999999993
 30
0.0
 11
-52.927798109144078
 21
41.31863237800011
 31
0.0
  0
LINE
  8
PATTERN_FILL
  6
CONTINUOUS
 62
               7
  5
6D
 10
-69.80865704891005
 20
7.75
 30
0.0
 11
-65.189854895393069
 21
15.749999999999989
 31
0.0
  0
LINE
  8
PATTERN_FILL
  6
CONTINUOUS
 62
               7
  5
6E
 10
-59.416352203496785
 20
25.749999999999993
 30
0.0
 11
-52.486304908575107
 21
37.75319401365963
 31
0.0
  0
LINE
  8
PATTERN_FILL
  6
CONTINUOUS
 62
               7
  5
6F
 10
-67.30865704891005
 20
7.7499999999999929
 30
0.0
 11
-62.689854895393069
 21
15.749999999999993
 31
0.0
  0
LINE
  8
PATTERN_FILL
  6
CONTINUOUS
 62
               7
  5
70
 10
-56.916352203496842
 20
25.749999999999993
 30
0.0
 11
-52.044811708006137
 21
34.187755649319172
 31
0.0
  0
LINE
  8
PATTERN_FILL
  6
CONTINUOUS
 62
               7
  5
71
 10
-64.80865704891005
 20
7.75
 30
0.0
 11
-60.189854895393069
 21
15.749999999999989
 31
0.0
  0
LINE
  8
PATTERN_FILL
  6
CONTINUOUS
 62
               7
  5
72
 10
-54.416352203496785
 20
25.749999999999993
 30
0.0
 11
-51.603318507437052
 21
30.622317284978692
 31
0.0
  0
LINE
  8
PATTERN_FILL
  6
CONTINUOUS
 62
               7
  5
73
 10
-62.30865704891005
 20
7.7499999999999929
 30
0.0
 11
-57.689854895393069
 21
15.749999999999989
 31
0.0
  0
LINE
  8
PATTERN_FILL
  6
CONTINUOUS
 62
               7
  5
74
 10
-51.916352203496785
 20
25.75
 30
0.0
 11
-51.161825306868081
 21
27.056878920638198
 31
0.0
  0
LINE
  8
PATTERN_FILL
  6
CONTINUOUS
 62
               7
  5
75
 10
-59.80865704891005
 20
7.75
 30
0.0
 11
-55.189854895393069
 21
15.749999999999996
 31
0.0
  0
LINE
  8
PATTERN_FILL
  6
CONTINUOUS
 62
               7
  5
76
 10
-57.30865704891005
 20
7.7499999999999929
 30
0.0
 11
-52.689854895393069
 21
15.749999999999993
 31
0.0
  0
LINE
  8
PATTERN_FILL
  6
CONTINUOUS
 62
               7
  5
77
 10
-54.80865704891005
 20
7.7499999999999929
 30
0.0
 11
-53.138372866657505
 21
10.643017066740157
 31
0.0
  0
LINE
  8
PATTERN_FILL
  6
CONTINUOUS
 62
               7
  5
78
 10
-55.045766061164386
 20
58.423050250901049
 30
0.0
 11
-58.698632201955888
 21
64.75
 31
0.0
  0
LINE
  8
PATTERN_FILL
  6
CONTINUOUS
 62
               7
  5
79
 10
-54.363191095685238
 20
52.910668711794422
 30
0.0
 11
-61.198632201955888
 21
64.75
 31
0.0
  0
LINE
  8
PATTERN_FILL
  6
CONTINUOUS
 62
               7
  5
7A
 10
-53.68061613020609
 20
47.398287172687773
 30
0.0
 11
-63.698632201955888
 21
64.75
 31
0.0
  0
LINE
  8
PATTERN_FILL
  6
CONTINUOUS
 62
               7
  5
7B
 10
-52.998041164726942
 20
41.885905633581125
 30
0.0
 11
-66.198632201955888
 21
64.75
 31
0.0
  0
LINE
  8
PATTERN_FILL
  6
CONTINUOUS
 62
               7
  5
7C
 10
-52.315466199247794
 20
36.373524094474476
 30
0.0
 11
-68.698632201955888
 21
64.75
 31
0.0
  0
LINE
  8
PATTERN_FILL
  6
CONTINUOUS
 62
               7
  5
7D
 10
-51.63289123376876
 20
30.861142555367842
 30
0.0
 11
-71.198632201955888
 21
64.75
 31
0.0
  0
LINE
  8
PATTERN_FILL
  6
CONTINUOUS
 62
               7
  5
7E
 10
-51.181971703560521
 20
25.75
 30
0.0
 11
-73.698632201955888
 21
64.75
 31
0.0
  0
LINE
  8
PATTERN_FILL
  6
CONTINUOUS
 62
               7
  5
7F
 10
-53.681971703560521
 20
25.749999999999986
 30
0.0
 11
-76.198632201955888
 21
64.75
 31
0.0
  0
LINE
  8
PATTERN_FILL
  6
CONTINUOUS
 62
               7
  5
80
 10
-56.181971703560521
 20
25.749999999999986
 30
0.0
 11
-78.698632201955888
 21
64.75
 31
0.0
  0
LINE
  8
PATTERN_FILL
  6
CONTINUOUS
 62
               7
  5
81
 10
-52.572696813396192
 20
15.168425492830515
 30
0.0
 11
-52.908469011664238
 21
15.749999999999993
 31
0.0
  0
LINE
  8
PATTERN_FILL
  6
CONTINUOUS
 62
               7
  5
82
 10
-58.681971703560521
 20
25.75
 30
0.0
 11
-81.198632201955888
 21
64.75
 31
0.0
  0
LINE
  8
PATTERN_FILL
  6
CONTINUOUS
 62
               7
  5
83
 10
-53.017631504402402
 20
11.608947964781017
 30
0.0
 11
-55.408469011664238
 21
15.75
 31
0.0
  0
LINE
  8
PATTERN_FILL
  6
CONTINUOUS
 62
               7
  5
84
 10
-61.181971703560521
 20
25.75
 30
0.0
 11
-83.698632201955888
 21
64.75
 31
0.0
  0
LINE
  8
PATTERN_FILL
  6
CONTINUOUS
 62
               7
  5
85
 10
-53.462566195408499
 20
8.0494704367314753
 30
0.0
 11
-57.908469011664295
 21
15.749999999999993
 31
0.0
  0
LINE
  8
PATTERN_FILL
  6
CONTINUOUS
 62
               7
  5
86
 10
-63.681971703560521
 20
25.749999999999986
 30
0.0
 11
-86.198632201955888
 21
64.75
 31
0.0
  0
LINE
  8
PATTERN_FILL
  6
CONTINUOUS
 62
               7
  5
87
 10
-55.789666858147257
 20
7.7499999999999929
 30
0.0
 11
-60.408469011664295
 21
15.749999999999993
 31
0.0
  0
LINE
  8
PATTERN_FILL
  6
CONTINUOUS
 62
               7
  5
88
 10
-66.181971703560521
 20
25.75
 30
0.0
 11
-88.698632201955888
 21
64.75
 31
0.0
  0
LINE
  8
PATTERN_FILL
  6
CONTINUOUS
 62
               7
  5
89
 10
-58.289666858147314
 20
7.7499999999999929
 30
0.0
 11
-62.908469011664295
 21
15.749999999999993
 31
0.0
  0
LINE
  8
PATTERN_FILL
  6
CONTINUOUS
 62
               7
  5
8A
 10
-68.681971703560521
 20
25.749999999999986
 30
0.0
 11
-91.198632201955888
 21
64.75
 31
0.0
  0
LINE
  8
PATTERN_FILL
  6
CONTINUOUS
 62
               7
  5
8B
 10
-60.789666858147257
 20
7.7499999999999929
 30
0.0
 11
-65.408469011664295
 21
15.749999999999993
 31
0.0
  0
LINE
  8
PATTERN_FILL
  6
CONTINUOUS
 62
               7
  5
8C
 10
-71.181971703560521
 20
25.749999999999993
 30
0.0
 11
-93.178159931165055
 21
63.848515583059516
 31
0.0
  0
LINE
  8
PATTERN_FILL
  6
CONTINUOUS
 62
               7
  5
8D
 10
-63.289666858147314
 20
7.7499999999999929
 30
0.0
 11
-67.908469011664295
 21
15.749999999999993
 31
0.0
  0
LINE
  8
PATTERN_FILL
  6
CONTINUOUS
 62
               7
  5
8E
 10
-73.681971703560521
 20
25.75
 30
0.0
 11
-94.528905062123329
 21
61.857947759033273
 31
0.0
  0
LINE
  8
PATTERN_FILL
  6
CONTINUOUS
 62
               7
  5
8F
 10
-65.789666858147257
 20
7.7499999999999929
 30
0.0
 11
-70.408469011664295
 21
15.749999999999993
 31
0.0
  0
LINE
  8
PATTERN_FILL
  6
CONTINUOUS
 62
               7
  5
90
 10
-76.181971703560521
 20
25.749999999999986
 30
0.0
 11
-94.970398262692299
 21
58.292509394692793
 31
0.0
  0
LINE
  8
PATTERN_FILL
  6
CONTINUOUS
 62
               7
  5
91
 10
-68.289666858147314
 20
7.7499999999999929
 30
0.0
 11
-72.908469011664295
 21
15.749999999999993
 31
0.0
  0
LINE
  8
PATTERN_FILL
  6
CONTINUOUS
 62
               7
  5
92
 10
-78.681971703560521
 20
25.749999999999993
 30
0.0
 11
-95.411891463261327
 21
54.727071030352285
 31
0.0
  0
LINE
  8
PATTERN_FILL
  6
CONTINUOUS
 62
               7
  5
93
 10
-70.789666858147314
 20
7.7499999999999929
 30
0.0
 11
-75.408469011664295
 21
15.75
 31
0.0
  0
LINE
  8
PATTERN_FILL
  6
CONTINUOUS
 62
               7
  5
94
 10
-81.181971703560521
 20
25.749999999999979
 30
0.0
 11
-95.853384663830298
 21
51.161632666011798
 31
0.0
  0
LINE
  8
PATTERN_FILL
  6
CONTINUOUS
 62
               7
  5
95
 10
-73.289666858147314
 20
7.7499999999999929
 30
0.0
 11
-77.908469011664295
 21
15.749999999999993
 31
0.0
  0
LINE
  8
PATTERN_FILL
  6
CONTINUOUS
 62
               7
  5
96
 10
-83.681971703560521
 20
25.75
 30
0.0
 11
-96.294877864399325
 21
47.596194301671318
 31
0.0
  0
LINE
  8
PATTERN_FILL
  6
CONTINUOUS
 62
               7
  5
97
 10
-75.789666858147314
 20
7.7499999999999929
 30
0.0
 11
-80.408469011664295
 21
15.749999999999993
 31
0.0
  0
LINE
  8
PATTERN_FILL
  6
CONTINUOUS
 62
               7
  5
98
 10
-86.181971703560521
 20
25.75
 30
0.0
 11
-96.736371064968353
 21
44.030755937330845
 31
0.0
  0
LINE
  8
PATTERN_FILL
  6
CONTINUOUS
 62
               7
  5
99
 10
-78.289666858147314
 20
7.7499999999999929
 30
0.0
 11
-82.908469011664295
 21
15.75
 31
0.0
  0
LINE
  8
PATTERN_FILL
  6
CONTINUOUS
 62
               7
  5
9A
 10
-88.681971703560521
 20
25.749999999999986
 30
0.0
 11
-97.177864265537323
 21
40.465317572990323
 31
0.0
  0
LINE
  8
PATTERN_FILL
  6
CONTINUOUS
 62
               7
  5
9B
 10
-80.789666858147314
 20
7.7499999999999858
 30
0.0
 11
-85.408469011664295
 21
15.75
 31
0.0
  0
LINE
  8
PATTERN_FILL
  6
CONTINUOUS
 62
               7
  5
9C
 10
-91.181971703560521
 20
25.750000000000007
 30
0.0
 11
-97.619357466106351
 21
36.899879208649857
 31
0.0
  0
LINE
  8
PATTERN_FILL
  6
CONTINUOUS
 62
               7
  5
9D
 10
-83.289666858147314
 20
7.7499999999999858
 30
0.0
 11
-87.908469011664295
 21
15.75
 31
0.0
  0
LINE
  8
PATTERN_FILL
  6
CONTINUOUS
 62
               7
  5
9E
 10
-93.681971703560521
 20
25.75
 30
0.0
 11
-98.060850666675378
 21
33.33444084430937
 31
0.0
  0
LINE
  8
PATTERN_FILL
  6
CONTINUOUS
 62
               7
  5
9F
 10
-85.789666858147314
 20
7.7499999999999929
 30
0.0
 11
-90.408469011664295
 21
15.749999999999993
 31
0.0
  0
LINE
  8
PATTERN_FILL
  6
CONTINUOUS
 62
               7
  5
A0
 10
-96.181971703560521
 20
25.75
 30
0.0
 11
-98.502343867244349
 21
29.769002479968876
 31
0.0
  0
LINE
  8
PATTERN_FILL
  6
CONTINUOUS
 62
               7
  5
A1
 10
-88.289666858147257
 20
7.7499999999999858
 30
0.0
 11
-92.908469011664295
 21
15.75
 31
0.0
  0
LINE
  8
PATTERN_FILL
  6
CONTINUOUS
 62
               7
  5
A2
 10
-98.681971703560521
 20
25.749999999999986
 30
0.0
 11
-98.943837067813377
 21
26.203564115628417
 31
0.0
  0
LINE
  8
PATTERN_FILL
  6
CONTINUOUS
 62
               7
  5
A3
 10
-90.789666858147314
 20
7.7499999999999929
 30
0.0
 11
-95.408469011664295
 21
15.749999999999993
 31
0.0
  0
LINE
  8
PATTERN_FILL
  6
CONTINUOUS
 62
               7
  5
A4
 10
-93.289666858147314
 20
7.7499999999999929
 30
0.0
 11
-97.387125906767949
 21
14.847007254143783
 31
0.0
  0
LINE
  8
PATTERN_FILL
  6
CONTINUOUS
 62
               7
  5
A5
 10
-95.789666858147314
 20
7.7499999999999929
 30
0.0
 11
-96.696289576417485
 21
9.3203166113401892
 31
0.0
  0
LINE
  8
PATTERN_FILL
  6
CONTINUOUS
 62
               7
  5
A6
 10
-98.703475266859073
 20
113.76101851542936
 30
0.0
 11
-90.108875211894997
 21
128.64730248136141
 31
0.0
  0
LINE
  8
PATTERN_FILL
  6
CONTINUOUS
 62
               7
  5
A7
 10
-98.97730831087182
 20
108.95659875148587
 30
0.0
 11
-86.085042167882193
 21
131.2866587358439
 31
0.0
  0
LINE
  8
PATTERN_FILL
  6
CONTINUOUS
 62
               7
  5
A8
 10
-98.548876020772354
 20
105.36853822661902
 30
0.0
 11
-82.763474457981715
 21
132.70965575124956
 31
0.0
  0
LINE
  8
PATTERN_FILL
  6
CONTINUOUS
 62
               7
  5
A9
 10
-97.764107370583474
 20
102.39767038201126
 30
0.0
 11
-79.798243108170709
 21
133.5154600863961
 31
0.0
  0
LINE
  8
PATTERN_FILL
  6
CONTINUOUS
 62
               7
  5
AA
 10
-96.734455543377237
 20
99.850952641916393
 30
0.0
 11
-77.070136213270985
 21
133.91055281791924
 31
0.0
  0
LINE
  8
PATTERN_FILL
  6
CONTINUOUS
 62
               7
  5
AB
 10
-95.484455543377237
 20
97.685889132455316
 30
0.0
 11
-74.521250987875419
 21
133.99522451204385
 31
0.0
  0
LINE
  8
PATTERN_FILL
  6
CONTINUOUS
 62
               7
  5
AC
 10
-94.193638798615893
 20
95.591522298720491
 30
0.0
 11
-72.11871168013829
 21
133.82641764130364
 31
0.0
  0
LINE
  8
PATTERN_FILL
  6
CONTINUOUS
 62
               7
  5
AD
 10
-92.720097648010892
 20
93.81364341968964
 30
0.0
 11
-69.842252830743178
 21
133.43923301087358
 31
0.0
  0
LINE
  8
PATTERN_FILL
  6
CONTINUOUS
 62
               7
  5
AE
 10
-91.133431522070225
 20
92.231702745545107
 30
0.0
 11
-67.678918956683901
 21
132.85611017555686
 31
0.0
  0
LINE
  8
PATTERN_FILL
  6
CONTINUOUS
 62
               7
  5
AF
 10
-89.441858845668776
 20
90.831465546845493
 30
0.0
 11
-65.620491633085237
 21
132.09128386479557
 31
0.0
  0
LINE
  8
PATTERN_FILL
  6
CONTINUOUS
 62
               7
  5
B0
 10
-87.650193666009955
 20
89.604593649244464
 30
0.0
 11
-63.662156812744115
 21
131.15309225293549
 31
0.0
  0
LINE
  8
PATTERN_FILL
  6
CONTINUOUS
 62
               7
  5
B1
 10
-85.760525057611346
 20
88.547468669536528
 30
0.0
 11
-61.80182542114278
 21
130.04515372318212
 31
0.0
  0
LINE
  8
PATTERN_FILL
  6
CONTINUOUS
 62
               7
  5
B2
 10
-83.772489583639583
 20
87.660720098782718
 30
0.0
 11
-60.039860895114487
 21
128.76683878447494
 31
0.0
  0
LINE
  8
PATTERN_FILL
  6
CONTINUOUS
 62
               7
  5
B3
 10
-81.683224851615819
 20
86.949305746187463
 30
0.0
 11
-58.379125627138251
 21
127.31318962760906
 31
0.0
  0
LINE
  8
PATTERN_FILL
  6
CONTINUOUS
 62
               7
  5
B4
 10
-79.486989606195266
 20
86.423169757707257
 30
0.0
 11
-56.825360872558804
 21
125.67426210662836
 31
0.0
  0
LINE
  8
PATTERN_FILL
  6
CONTINUOUS
 62
               7
  5
B5
 10
-77.174324382967995
 20
86.098696406312285
 30
0.0
 11
-55.388026095786131
 21
123.83367194856211
 31
0.0
  0
LINE
  8
PATTERN_FILL
  6
CONTINUOUS
 62
               7
  5
B6
 10
-74.730432709710499
 20
86.001513933666502
 30
0.0
 11
-54.081917769043571
 21
121.76579091174682
 31
0.0
  0
LINE
  8
PATTERN_FILL
  6
CONTINUOUS
 62
               7
  5
B7
 10
-72.132015638162898
 20
86.171977301919213
 30
0.0
 11
-52.930334840591172
 21
119.43026403403303
 31
0.0
  0
LINE
  8
PATTERN_FILL
  6
CONTINUOUS
 62
               7
  5
B8
 10
-69.340542252129353
 20
86.676824015583435
 30
0.0
 11
-51.971808226624717
 21
116.76035381090765
 31
0.0
  0
LINE
  8
PATTERN_FILL
  6
CONTINUOUS
 62
               7
  5
B9
 10
-66.285612224348085
 20
87.637991018346185
 30
0.0
 11
-51.276738254405927
 21
113.63412329868387
 31
0.0
  0
LINE
  8
PATTERN_FILL
  6
CONTINUOUS
 62
               7
  5
BA
 10
-62.811356736217135
 20
89.32545102334177
 30
0.0
 11
-51.000993742536934
 21
109.78159978422724
 31
0.0
  0
LINE
  8
PATTERN_FILL
  6
CONTINUOUS
 62
               7
  5
BB
 10
-58.360140928572889
 20
92.705055938713116
 30
0.0
 11
-51.702209550181124
 21
104.23693135939473
 31
0.0
  0
LINE
  8
PATTERN_FILL
  6
CONTINUOUS
 62
               7
  5
BC
 10
-52.664790829424874
 20
118.78284870111389
 30
0.0
 11
-56.226225321952768
 21
124.9514341900005
 31
0.0
  0
LINE
  8
PATTERN_FILL
  6
CONTINUOUS
 62
               7
  5
BD
 10
-51.058170779721195
 20
111.66997412764616
 30
0.0
 11
-61.582845371656163
 21
129.89924525400667
 31
0.0
  0
LINE
  8
PATTERN_FILL
  6
CONTINUOUS
 62
               7
  5
BE
 10
-51.133661028214647
 20
107.47060005459045
 30
0.0
 11
-65.257355123162938
 21
131.93355581760147
 31
0.0
  0
LINE
  8
PATTERN_FILL
  6
CONTINUOUS
 62
               7
  5
BF
 10
-51.721650451599771
 20
104.15890059128452
 30
0.0
 11
-68.419365699777757
 21
133.08019177144638
 31
0.0
  0
LINE
  8
PATTERN_FILL
  6
CONTINUOUS
 62
               7
  5
C0
 10
-52.607766724982071
 20
101.36357197927407
 30
0.0
 11
-71.283249426395514
 21
133.71045687399578
 31
0.0
  0
LINE
  8
PATTERN_FILL
  6
CONTINUOUS
 62
               7
  5
C1
 10
-53.704201761717968
 20
98.932526151177001
 30
0.0
 11
-73.93681438965973
 21
133.97643919263183
 31
0.0
  0
LINE
  8
PATTERN_FILL
  6
CONTINUOUS
 62
               7
  5
C2
 10
-54.965077360033661
 20
96.78629973056141
 30
0.0
 11
-76.425938791343924
 21
133.95760210378623
 31
0.0
  0
LINE
  8
PATTERN_FILL
  6
CONTINUOUS
 62
               7
  5
C3
 10
-56.363328089230777
 20
94.878014016328876
 30
0.0
 11
-78.777688062146751
 21
133.70082430855757
 31
0.0
  0
LINE
  8
PATTERN_FILL
  6
CONTINUOUS
 62
               7
  5
C4
 10
-57.881950095799823
 20
93.178217470276536
 30
0.0
 11
-81.009066055577819
 21
133.23555734514906
 31
0.0
  0
LINE
  8
PATTERN_FILL
  6
CONTINUOUS
 62
               7
  5
C5
 10
-61.240818495234123
 20
90.335694156189874
 30
0.0
 11
-85.150197656143519
 21
131.74795364031348
 31
0.0
  0
LINE
  8
PATTERN_FILL
  6
CONTINUOUS
 62
               7
  5
C6
 10
-63.070577122953182
 20
89.174802046064627
 30
0.0
 11
-87.070439028424403
 21
130.74378224097754
 31
0.0
  0
LINE
  8
PATTERN_FILL
  6
CONTINUOUS
 62
               7
  5
C7
 10
-64.998193198453464
 20
88.183404007395438
 30
0.0
 11
-88.892822952924178
 21
129.57011677018576
 31
0.0
  0
LINE
  8
PATTERN_FILL
  6
CONTINUOUS
 62
               7
  5
C8
 10
-67.02497618089069
 20
87.363768089970506
 30
0.0
 11
-90.616039970486838
 21
128.22468917814939
 31
0.0
  0
LINE
  8
PATTERN_FILL
  6
CONTINUOUS
 62
               7
  5
C9
 10
-69.154838139043591
 20
86.722670195677267
 30
0.0
 11
-92.236178012334108
 21
126.70072356298184
 31
0.0
  0
LINE
  8
PATTERN_FILL
  6
CONTINUOUS
 62
               7
  5
CA
 10
-71.394829013905735
 20
86.272321180506935
 30
0.0
 11
-93.746187137471907
 21
124.98600906869092
 31
0.0
  0
LINE
  8
PATTERN_FILL
  6
CONTINUOUS
 62
               7
  5
CB
 10
-73.756224077339539
 20
86.032250388194456
 30
0.0
 11
-95.134792074038046
 21
123.06101635154232
 31
0.0
  0
LINE
  8
PATTERN_FILL
  6
CONTINUOUS
 62
               7
  5
CC
 10
-76.256610604889715
 20
86.032919873549957
 30
0.0
 11
-96.384405546487869
 21
120.8952833567258
 31
0.0
  0
LINE
  8
PATTERN_FILL
  6
CONTINUOUS
 62
               7
  5
CD
 10
-78.924072253328575
 20
86.322971956965233
 30
0.0
 11
-97.466943898048953
 21
118.44016776384922
 31
0.0
  0
LINE
  8
PATTERN_FILL
  6
CONTINUOUS
 62
               7
  5
CE
 10
-81.80653432733186
 20
86.985415701107087
 30
0.0
 11
-98.334481824045838
 21
115.6126605102466
 31
0.0
  0
LINE
  8
PATTERN_FILL
  6
CONTINUOUS
 62
               7
  5
CF
 10
-84.996892960507864
 20
88.181151929211751
 30
0.0
 11
-98.894123190869834
 21
112.2518607726808
 31
0.0
  0
LINE
  8
PATTERN_FILL
  6
CONTINUOUS
 62
               7
  5
D0
 10
-88.728407141466107
 20
90.314197060872942
 30
0.0
 11
-98.912609009911591
 21
107.95375213155845
 31
0.0
  0
LINE
  8
PATTERN_FILL
  6
CONTINUOUS
 62
               7
  5
D1
 10
-58.740818495234123
 20
90.335694156189874
 30
0.0
 11
-58.748729639061594
 21
90.349396659245087
 31
0.0
  0
LINE
  8
PATTERN_FILL
  6
CONTINUOUS
 62
               7
  5
D2
 10
-59.510041824958364
 20
91.668028045639545
 30
0.0
 11
-83.130974326419221
 21
132.5806832603248
 31
0.0
  0
LINE
  8
PATTERN_FILL
  6
CONTINUOUS
 62
               7
  5
D3
 10
-19.790873570753547
 20
59.742326114768723
 30
0.0
 11
-16.899691705101418
 21
64.75
 31
0.0
  0
LINE
  8
PATTERN_FILL
  6
CONTINUOUS
 62
               7
  5
D4
 10
-20.473448536232695
 20
54.229944575662067
 30
0.0
 11
-14.399691705101418
 21
64.75
 31
0.0
  0
LINE
  8
PATTERN_FILL
  6
CONTINUOUS
 62
               7
  5
D5
 10
-21.156023501711843
 20
48.71756303655544
 30
0.0
 11
-11.899691705101418
 21
64.75
 31
0.0
  0
LINE
  8
PATTERN_FILL
  6
CONTINUOUS
 62
               7
  5
D6
 10
-21.838598467190991
 20
43.205181497448805
 30
0.0
 11
-9.3996917051014179
 21
64.75
 31
0.0
  0
LINE
  8
PATTERN_FILL
  6
CONTINUOUS
 62
               7
  5
D7
 10
-22.521173432670139
 20
37.692799958342164
 30
0.0
 11
-6.8996917051014179
 21
64.75
 31
0.0
  0
LINE
  8
PATTERN_FILL
  6
CONTINUOUS
 62
               7
  5
D8
 10
-23.203748398149287
 20
32.180418419235558
 30
0.0
 11
-4.3996917051014179
 21
64.75
 31
0.0
  0
LINE
  8
PATTERN_FILL
  6
CONTINUOUS
 62
               7
  5
D9
 10
-23.886323363628435
 20
26.66803688012893
 30
0.0
 11
-1.8996917051014179
 21
64.75
 31
0.0
  0
LINE
  8
PATTERN_FILL
  6
CONTINUOUS
 62
               7
  5
DA
 10
-21.916352203496785
 20
25.749999999999993
 30
0.0
 11
0.6003082948985821
 21
64.75
 31
0.0
  0
LINE
  8
PATTERN_FILL
  6
CONTINUOUS
 62
               7
  5
DB
 10
-19.416352203496785
 20
25.749999999999993
 30
0.0
 11
3.1003082948985821
 21
64.75
 31
0.0
  0
LINE
  8
PATTERN_FILL
  6
CONTINUOUS
 62
               7
  5
DC
 10
-16.916352203496785
 20
25.749999999999986
 30
0.0
 11
5.6003082948985821
 21
64.75
 31
0.0
  0
LINE
  8
PATTERN_FILL
  6
CONTINUOUS
 62
               7
  5
DD
 10
-22.088854520680911
 20
12.460836165447247
 30
0.0
 11
-20.189854895393069
 21
15.749999999999989
 31
0.0
  0
LINE
  8
PATTERN_FILL
  6
CONTINUOUS
 62
               7
  5
DE
 10
-14.416352203496785
 20
25.749999999999993
 30
0.0
 11
8.1003082948985821
 21
64.75
 31
0.0
  0
LINE
  8
PATTERN_FILL
  6
CONTINUOUS
 62
               7
  5
DF
 10
-21.643919829674701
 20
8.9013586373977134
 30
0.0
 11
-17.689854895393069
 21
15.749999999999993
 31
0.0
  0
LINE
  8
PATTERN_FILL
  6
CONTINUOUS
 62
               7
  5
E0
 10
-11.916352203496785
 20
25.749999999999993
 30
0.0
 11
10.600308294898582
 21
64.75
 31
0.0
  0
LINE
  8
PATTERN_FILL
  6
CONTINUOUS
 62
               7
  5
E1
 10
-19.80865704891005
 20
7.75
 30
0.0
 11
-15.189854895393069
 21
15.749999999999993
 31
0.0
  0
LINE
  8
PATTERN_FILL
  6
CONTINUOUS
 62
               7
  5
E2
 10
-9.4163522034967855
 20
25.749999999999986
 30
0.0
 11
13.100308294898582
 21
64.75
 31
0.0
  0
LINE
  8
PATTERN_FILL
  6
CONTINUOUS
 62
               7
  5
E3
 10
-17.30865704891005
 20
7.7499999999999858
 30
0.0
 11
-12.689854895393069
 21
15.749999999999989
 31
0.0
  0
LINE
  8
PATTERN_FILL
  6
CONTINUOUS
 62
               7
  5
E4
 10
-6.9163522034967855
 20
25.749999999999993
 30
0.0
 11
15.600308294898582
 21
64.75
 31
0.0
  0
LINE
  8
PATTERN_FILL
  6
CONTINUOUS
 62
               7
  5
E5
 10
-14.80865704891005
 20
7.7499999999999858
 30
0.0
 11
-10.189854895393069
 21
15.749999999999989
 31
0.0
  0
LINE
  8
PATTERN_FILL
  6
CONTINUOUS
 62
               7
  5
E6
 10
-4.4163522034967855
 20
25.749999999999993
 30
0.0
 11
17.839641327241111
 21
64.298511568162354
 31
0.0
  0
LINE
  8
PATTERN_FILL
  6
CONTINUOUS
 62
               7
  5
E7
 10
-12.30865704891005
 20
7.7499999999999858
 30
0.0
 11
-7.6898548953930685
 21
15.749999999999986
 31
0.0
  0
LINE
  8
PATTERN_FILL
  6
CONTINUOUS
 62
               7
  5
E8
 10
-1.9163522034967855
 20
25.749999999999986
 30
0.0
 11
19.254086746900384
 21
62.418275880623177
 31
0.0
  0
LINE
  8
PATTERN_FILL
  6
CONTINUOUS
 62
               7
  5
E9
 10
-9.8086570489100495
 20
7.75
 30
0.0
 11
-5.1898548953930685
 21
15.749999999999989
 31
0.0
  0
LINE
  8
PATTERN_FILL
  6
CONTINUOUS
 62
               7
  5
EA
 10
0.5836477965032145
 20
25.75
 30
0.0
 11
19.864735888010841
 21
59.145824199702524
 31
0.0
  0
LINE
  8
PATTERN_FILL
  6
CONTINUOUS
 62
               7
  5
EB
 10
-7.3086570489100495
 20
7.75
 30
0.0
 11
-2.6898548953930685
 21
15.749999999999989
 31
0.0
  0
LINE
  8
PATTERN_FILL
  6
CONTINUOUS
 62
               7
  5
EC
 10
3.0836477965032145
 20
25.749999999999993
 30
0.0
 11
20.306229088579812
 21
55.58038583536203
 31
0.0
  0
LINE
  8
PATTERN_FILL
  6
CONTINUOUS
 62
               7
  5
ED
 10
-4.8086570489100495
 20
7.7499999999999858
 30
0.0
 11
-0.1898548953930686
 21
15.75
 31
0.0
  0
LINE
  8
PATTERN_FILL
  6
CONTINUOUS
 62
               7
  5
EE
 10
5.5836477965032145
 20
25.75
 30
0.0
 11
20.747722289148896
 21
52.014947471021536
 31
0.0
  0
LINE
  8
PATTERN_FILL
  6
CONTINUOUS
 62
               7
  5
EF
 10
-2.3086570489100495
 20
7.7499999999999929
 30
0.0
 11
2.3101451046069315
 21
15.749999999999993
 31
0.0
  0
LINE
  8
PATTERN_FILL
  6
CONTINUOUS
 62
               7
  5
F0
 10
8.0836477965032145
 20
25.749999999999993
 30
0.0
 11
21.189215489717867
 21
48.449509106681084
 31
0.0
  0
LINE
  8
PATTERN_FILL
  6
CONTINUOUS
 62
               7
  5
F1
 10
0.1913429510899505
 20
7.7499999999999929
 30
0.0
 11
4.8101451046069315
 21
15.749999999999989
 31
0.0
  0
LINE
  8
PATTERN_FILL
  6
CONTINUOUS
 62
               7
  5
F2
 10
10.583647796503215
 20
25.75
 30
0.0
 11
21.630708690286838
 21
44.884070742340576
 31
0.0
  0
LINE
  8
PATTERN_FILL
  6
CONTINUOUS
 62
               7
  5
F3
 10
2.6913429510899505
 20
7.7499999999999858
 30
0.0
 11
7.3101451046069315
 21
15.749999999999989
 31
0.0
  0
LINE
  8
PATTERN_FILL
  6
CONTINUOUS
 62
               7
  5
F4
 10
13.083647796503215
 20
25.749999999999993
 30
0.0
 11
22.072201890855922
 21
41.31863237800011
 31
0.0
  0
LINE
  8
PATTERN_FILL
  6
CONTINUOUS
 62
               7
  5
F5
 10
5.1913429510899505
 20
7.75
 30
0.0
 11
9.8101451046069315
 21
15.749999999999989
 31
0.0
  0
LINE
  8
PATTERN_FILL
  6
CONTINUOUS
 62
               7
  5
F6
 10
15.583647796503215
 20
25.749999999999993
 30
0.0
 11
22.513695091424893
 21
37.75319401365963
 31
0.0
  0
LINE
  8
PATTERN_FILL
  6
CONTINUOUS
 62
               7
  5
F7
 10
7.6913429510899505
 20
7.7499999999999929
 30
0.0
 11
12.310145104606931
 21
15.749999999999993
 31
0.0
  0
LINE
  8
PATTERN_FILL
  6
CONTINUOUS
 62
               7
  5
F8
 10
18.083647796503215
 20
25.749999999999993
 30
0.0
 11
22.955188291993863
 21
34.187755649319172
 31
0.0
  0
LINE
  8
PATTERN_FILL
  6
CONTINUOUS
 62
               7
  5
F9
 10
10.19134295108995
 20
7.75
 30
0.0
 11
14.810145104606931
 21
15.749999999999989
 31
0.0
  0
LINE
  8
PATTERN_FILL
  6
CONTINUOUS
 62
               7
  5
FA
 10
20.583647796503215
 20
25.749999999999993
 30
0.0
 11
23.396681492562948
 21
30.622317284978692
 31
0.0
  0
LINE
  8
PATTERN_FILL
  6
CONTINUOUS
 62
               7
  5
FB
 10
12.69134295108995
 20
7.7499999999999929
 30
0.0
 11
17.310145104606931
 21
15.749999999999989
 31
0.0
  0
LINE
  8
PATTERN_FILL
  6
CONTINUOUS
 62
               7
  5
FC
 10
23.083647796503215
 20
25.75
 30
0.0
 11
23.838174693131919
 21
27.056878920638198
 31
0.0
  0
LINE
  8
PATTERN_FILL
  6
CONTINUOUS
 62
               7
  5
FD
 10
15.19134295108995
 20
7.75
 30
0.0
 11
19.810145104606931
 21
15.749999999999996
 31
0.0
  0
LINE
  8
PATTERN_FILL
  6
CONTINUOUS
 62
               7
  5
FE
 10
17.69134295108995
 20
7.7499999999999929
 30
0.0
 11
22.310145104606931
 21
15.749999999999993
 31
0.0
  0
LINE
  8
PATTERN_FILL
  6
CONTINUOUS
 62
               7
  5
FF
 10
20.19134295108995
 20
7.7499999999999929
 30
0.0
 11
21.861627133342495
 21
10.643017066740157
 31
0.0
  0
LINE
  8
PATTERN_FILL
  6
CONTINUOUS
 62
               7
  5
100
 10
19.954233938835614
 20
58.423050250901049
 30
0.0
 11
16.301367798044112
 21
64.75
 31
0.0
  0
LINE
  8
PATTERN_FILL
  6
CONTINUOUS
 62
               7
  5
101
 10
20.636808904314762
 20
52.910668711794422
 30
0.0
 11
13.801367798044112
 21
64.75
 31
0.0
  0
LINE
  8
PATTERN_FILL
  6
CONTINUOUS
 62
               7
  5
102
 10
21.31938386979391
 20
47.398287172687773
 30
0.0
 11
11.301367798044112
 21
64.75
 31
0.0
  0
LINE
  8
PATTERN_FILL
  6
CONTINUOUS
 62
               7
  5
103
 10
22.001958835273058
 20
41.885905633581125
 30
0.0
 11
8.8013677980441116
 21
64.75
 31
0.0
  0
LINE
  8
PATTERN_FILL
  6
CONTINUOUS
 62
               7
  5
104
 10
22.684533800752206
 20
36.373524094474476
 30
0.0
 11
6.3013677980441116
 21
64.75
 31
0.0
  0
LINE
  8
PATTERN_FILL
  6
CONTINUOUS
 62
               7
  5
105
 10
23.36710876623124
 20
30.861142555367842
 30
0.0
 11
3.8013677980441116
 21
64.75
 31
0.0
  0
LINE
  8
PATTERN_FILL
  6
CONTINUOUS
 62
               7
  5
106
 10
23.818028296439479
 20
25.75
 30
0.0
 11
1.3013677980441116
 21
64.75
 31
0.0
  0
LINE
  8
PATTERN_FILL
  6
CONTINUOUS
 62
               7
  5
107
 10
21.318028296439479
 20
25.749999999999986
 30
0.0
 11
-1.1986322019558884
 21
64.75
 31
0.0
  0
LINE
  8
PATTERN_FILL
  6
CONTINUOUS
 62
               7
  5
108
 10
18.818028296439479
 20
25.749999999999986
 30
0.0
 11
-3.6986322019558884
 21
64.75
 31
0.0
  0
LINE
  8
PATTERN_FILL
  6
CONTINUOUS
 62
               7
  5
109
 10
22.427303186603808
 20
15.168425492830515
 30
0.0
 11
22.091530988335762
 21
15.749999999999993
 31
0.0
  0
LINE
  8
PATTERN_FILL
  6
CONTINUOUS
 62
               7
  5
10A
 10
16.318028296439479
 20
25.75
 30
0.0
 11
-6.1986322019558884
 21
64.75
 31
0.0
  0
LINE
  8
PATTERN_FILL
  6
CONTINUOUS
 62
               7
  5
10B
 10
21.982368495597598
 20
11.608947964781017
 30
0.0
 11
19.591530988335762
 21
15.75
 31
0.0
  0
LINE
  8
PATTERN_FILL
  6
CONTINUOUS
 62
               7
  5
10C
 10
13.818028296439479
 20
25.75
 30
0.0
 11
-8.6986322019558884
 21
64.75
 31
0.0
  0
LINE
  8
PATTERN_FILL
  6
CONTINUOUS
 62
               7
  5
10D
 10
21.537433804591501
 20
8.0494704367314753
 30
0.0
 11
17.091530988335762
 21
15.749999999999993
 31
0.0
  0
LINE
  8
PATTERN_FILL
  6
CONTINUOUS
 62
               7
  5
10E
 10
11.318028296439479
 20
25.749999999999986
 30
0.0
 11
-11.198632201955888
 21
64.75
 31
0.0
  0
LINE
  8
PATTERN_FILL
  6
CONTINUOUS
 62
               7
  5
10F
 10
19.210333141852743
 20
7.7499999999999929
 30
0.0
 11
14.591530988335762
 21
15.749999999999993
 31
0.0
  0
LINE
  8
PATTERN_FILL
  6
CONTINUOUS
 62
               7
  5
110
 10
8.8180282964394792
 20
25.75
 30
0.0
 11
-13.698632201955888
 21
64.75
 31
0.0
  0
LINE
  8
PATTERN_FILL
  6
CONTINUOUS
 62
               7
  5
111
 10
16.710333141852743
 20
7.7499999999999929
 30
0.0
 11
12.091530988335762
 21
15.749999999999993
 31
0.0
  0
LINE
  8
PATTERN_FILL
  6
CONTINUOUS
 62
               7
  5
112
 10
6.3180282964394792
 20
25.749999999999986
 30
0.0
 11
-16.198632201955888
 21
64.75
 31
0.0
  0
LINE
  8
PATTERN_FILL
  6
CONTINUOUS
 62
               7
  5
113
 10
14.210333141852743
 20
7.7499999999999929
 30
0.0
 11
9.5915309883357622
 21
15.749999999999993
 31
0.0
  0
LINE
  8
PATTERN_FILL
  6
CONTINUOUS
 62
               7
  5
114
 10
3.8180282964394792
 20
25.749999999999993
 30
0.0
 11
-18.178159931165055
 21
63.848515583059516
 31
0.0
  0
LINE
  8
PATTERN_FILL
  6
CONTINUOUS
 62
               7
  5
115
 10
11.710333141852743
 20
7.7499999999999929
 30
0.0
 11
7.0915309883357622
 21
15.749999999999993
 31
0.0
  0
LINE
  8
PATTERN_FILL
  6
CONTINUOUS
 62
               7
  5
116
 10
1.3180282964394792
 20
25.75
 30
0.0
 11
-19.528905062123272
 21
61.857947759033273
 31
0.0
  0
LINE
  8
PATTERN_FILL
  6
CONTINUOUS
 62
               7
  5
117
 10
9.2103331418527432
 20
7.7499999999999929
 30
0.0
 11
4.5915309883357622
 21
15.749999999999993
 31
0.0
  0
LINE
  8
PATTERN_FILL
  6
CONTINUOUS
 62
               7
  5
118
 10
-1.1819717035605208
 20
25.749999999999986
 30
0.0
 11
-19.970398262692242
 21
58.292509394692793
 31
0.0
  0
LINE
  8
PATTERN_FILL
  6
CONTINUOUS
 62
               7
  5
119
 10
6.7103331418527432
 20
7.7499999999999929
 30
0.0
 11
2.0915309883357622
 21
15.749999999999993
 31
0.0
  0
LINE
  8
PATTERN_FILL
  6
CONTINUOUS
 62
               7
  5
11A
 10
-3.6819717035605208
 20
25.749999999999993
 30
0.0
 11
-20.411891463261327
 21
54.727071030352285
 31
0.0
  0
LINE
  8
PATTERN_FILL
  6
CONTINUOUS
 62
               7
  5
11B
 10
4.2103331418527432
 20
7.7499999999999929
 30
0.0
 11
-0.4084690116642378
 21
15.75
 31
0.0
  0
LINE
  8
PATTERN_FILL
  6
CONTINUOUS
 62
               7
  5
11C
 10
-6.1819717035605208
 20
25.749999999999979
 30
0.0
 11
-20.853384663830298
 21
51.161632666011798
 31
0.0
  0
LINE
  8
PATTERN_FILL
  6
CONTINUOUS
 62
               7
  5
11D
 10
1.7103331418527432
 20
7.7499999999999929
 30
0.0
 11
-2.9084690116642378
 21
15.749999999999993
 31
0.0
  0
LINE
  8
PATTERN_FILL
  6
CONTINUOUS
 62
               7
  5
11E
 10
-8.6819717035605208
 20
25.75
 30
0.0
 11
-21.294877864399268
 21
47.596194301671318
 31
0.0
  0
LINE
  8
PATTERN_FILL
  6
CONTINUOUS
 62
               7
  5
11F
 10
-0.7896668581472568
 20
7.7499999999999929
 30
0.0
 11
-5.4084690116642378
 21
15.749999999999993
 31
0.0
  0
LINE
  8
PATTERN_FILL
  6
CONTINUOUS
 62
               7
  5
120
 10
-11.181971703560521
 20
25.75
 30
0.0
 11
-21.736371064968353
 21
44.030755937330845
 31
0.0
  0
LINE
  8
PATTERN_FILL
  6
CONTINUOUS
 62
               7
  5
121
 10
-3.2896668581472568
 20
7.7499999999999929
 30
0.0
 11
-7.9084690116642378
 21
15.75
 31
0.0
  0
LINE
  8
PATTERN_FILL
  6
CONTINUOUS
 62
               7
  5
122
 10
-13.681971703560521
 20
25.749999999999986
 30
0.0
 11
-22.177864265537323
 21
40.465317572990323
 31
0.0
  0
LINE
  8
PATTERN_FILL
  6
CONTINUOUS
 62
               7
  5
123
 10
-5.7896668581472568
 20
7.7499999999999858
 30
0.0
 11
-10.408469011664351
 21
15.75
 31
0.0
  0
LINE
  8
PATTERN_FILL
  6
CONTINUOUS
 62
               7
  5
124
 10
-16.181971703560521
 20
25.750000000000007
 30
0.0
 11
-22.619357466106294
 21
36.899879208649857
 31
0.0
  0
LINE
  8
PATTERN_FILL
  6
CONTINUOUS
 62
               7
  5
125
 10
-8.2896668581472568
 20
7.7499999999999858
 30
0.0
 11
-12.908469011664351
 21
15.75
 31
0.0
  0
LINE
  8
PATTERN_FILL
  6
CONTINUOUS
 62
               7
  5
126
 10
-18.681971703560521
 20
25.75
 30
0.0
 11
-23.060850666675378
 21
33.33444084430937
 31
0.0
  0
LINE
  8
PATTERN_FILL
  6
CONTINUOUS
 62
               7
  5
127
 10
-10.789666858147257
 20
7.7499999999999929
 30
0.0
 11
-15.408469011664238
 21
15.749999999999993
 31
0.0
  0
LINE
  8
PATTERN_FILL
  6
CONTINUOUS
 62
               7
  5
128
 10
-21.181971703560521
 20
25.75
 30
0.0
 11
-23.502343867244349
 21
29.769002479968876
 31
0.0
  0
LINE
  8
PATTERN_FILL
  6
CONTINUOUS
 62
               7
  5
129
 10
-13.289666858147257
 20
7.7499999999999858
 30
0.0
 11
-17.908469011664238
 21
15.75
 31
0.0
  0
LINE
  8
PATTERN_FILL
  6
CONTINUOUS
 62
               7
  5
12A
 10
-23.681971703560521
 20
25.749999999999986
 30
0.0
 11
-23.94383706781332
 21
26.203564115628417
 31
0.0
  0
LINE
  8
PATTERN_FILL
  6
CONTINUOUS
 62
               7
  5
12B
 10
-15.789666858147257
 20
7.7499999999999929
 30
0.0
 11
-20.408469011664238
 21
15.749999999999993
 31
0.0
  0
LINE
  8
PATTERN_FILL
  6
CONTINUOUS
 62
               7
  5
12C
 10
-18.289666858147257
 20
7.7499999999999929
 30
0.0
 11
-22.387125906768006
 21
14.847007254143783
 31
0.0
  0
LINE
  8
PATTERN_FILL
  6
CONTINUOUS
 62
               7
  5
12D
 10
-20.789666858147257
 20
7.7499999999999929
 30
0.0
 11
-21.696289576417485
 21
9.3203166113401892
 31
0.0
  0
LINE
  8
PATTERN_FILL
  6
CONTINUOUS
 62
               7
  5
12E
 10
80.209126429246453
 20
59.742326114768723
 30
0.0
 11
83.100308294898582
 21
64.75
 31
0.0
  0
LINE
  8
PATTERN_FILL
  6
CONTINUOUS
 62
               7
  5
12F
 10
79.526551463767305
 20
54.229944575662067
 30
0.0
 11
85.600308294898582
 21
64.75
 31
0.0
  0
LINE
  8
PATTERN_FILL
  6
CONTINUOUS
 62
               7
  5
130
 10
78.843976498288157
 20
48.71756303655544
 30
0.0
 11
88.100308294898582
 21
64.75
 31
0.0
  0
LINE
  8
PATTERN_FILL
  6
CONTINUOUS
 62
               7
  5
131
 10
78.161401532809009
 20
43.205181497448805
 30
0.0
 11
90.600308294898582
 21
64.75
 31
0.0
  0
LINE
  8
PATTERN_FILL
  6
CONTINUOUS
 62
               7
  5
132
 10
77.478826567329861
 20
37.692799958342164
 30
0.0
 11
93.100308294898582
 21
64.75
 31
0.0
  0
LINE
  8
PATTERN_FILL
  6
CONTINUOUS
 62
               7
  5
133
 10
76.796251601850713
 20
32.180418419235558
 30
0.0
 11
95.600308294898582
 21
64.75
 31
0.0
  0
LINE
  8
PATTERN_FILL
  6
CONTINUOUS
 62
               7
  5
134
 10
76.113676636371565
 20
26.66803688012893
 30
0.0
 11
98.100308294898582
 21
64.75
 31
0.0
  0
LINE
  8
PATTERN_FILL
  6
CONTINUOUS
 62
               7
  5
135
 10
78.083647796503215
 20
25.749999999999993
 30
0.0
 11
100.60030829489858
 21
64.75
 31
0.0
  0
LINE
  8
PATTERN_FILL
  6
CONTINUOUS
 62
               7
  5
136
 10
80.583647796503215
 20
25.749999999999993
 30
0.0
 11
103.10030829489858
 21
64.75
 31
0.0
  0
LINE
  8
PATTERN_FILL
  6
CONTINUOUS
 62
               7
  5
137
 10
83.083647796503215
 20
25.749999999999986
 30
0.0
 11
105.60030829489858
 21
64.75
 31
0.0
  0
LINE
  8
PATTERN_FILL
  6
CONTINUOUS
 62
               7
  5
138
 10
77.911145479319089
 20
12.460836165447247
 30
0.0
 11
79.810145104606931
 21
15.749999999999989
 31
0.0
  0
LINE
  8
PATTERN_FILL
  6
CONTINUOUS
 62
               7
  5
139
 10
85.583647796503215
 20
25.749999999999993
 30
0.0
 11
108.10030829489858
 21
64.75
 31
0.0
  0
LINE
  8
PATTERN_FILL
  6
CONTINUOUS
 62
               7
  5
13A
 10
78.356080170325299
 20
8.9013586373977134
 30
0.0
 11
82.310145104606931
 21
15.749999999999993
 31
0.0
  0
LINE
  8
PATTERN_FILL
  6
CONTINUOUS
 62
               7
  5
13B
 10
88.083647796503215
 20
25.749999999999993
 30
0.0
 11
110.60030829489858
 21
64.75
 31
0.0
  0
LINE
  8
PATTERN_FILL
  6
CONTINUOUS
 62
               7
  5
13C
 10
80.19134295108995
 20
7.75
 30
0.0
 11
84.810145104606931
 21
15.749999999999993
 31
0.0
  0
LINE
  8
PATTERN_FILL
  6
CONTINUOUS
 62
               7
  5
13D
 10
90.583647796503215
 20
25.749999999999986
 30
0.0
 11
113.10030829489858
 21
64.75
 31
0.0
  0
LINE
  8
PATTERN_FILL
  6
CONTINUOUS
 62
               7
  5
13E
 10
82.69134295108995
 20
7.7499999999999858
 30
0.0
 11
87.310145104606931
 21
15.749999999999989
 31
0.0
  0
LINE
  8
PATTERN_FILL
  6
CONTINUOUS
 62
               7
  5
13F
 10
93.083647796503215
 20
25.749999999999993
 30
0.0
 11
115.60030829489858
 21
64.75
 31
0.0
  0
LINE
  8
PATTERN_FILL
  6
CONTINUOUS
 62
               7
  5
140
 10
85.19134295108995
 20
7.7499999999999858
 30
0.0
 11
89.810145104606931
 21
15.749999999999989
 31
0.0
  0
LINE
  8
PATTERN_FILL
  6
CONTINUOUS
 62
               7
  5
141
 10
95.583647796503215
 20
25.749999999999993
 30
0.0
 11
117.83964132724111
 21
64.298511568162354
 31
0.0
  0
LINE
  8
PATTERN_FILL
  6
CONTINUOUS
 62
               7
  5
142
 10
87.69134295108995
 20
7.7499999999999858
 30
0.0
 11
92.310145104606931
 21
15.749999999999986
 31
0.0
  0
LINE
  8
PATTERN_FILL
  6
CONTINUOUS
 62
               7
  5
143
 10
98.083647796503215
 20
25.749999999999986
 30
0.0
 11
119.25408674690038
 21
62.418275880623177
 31
0.0
  0
LINE
  8
PATTERN_FILL
  6
CONTINUOUS
 62
               7
  5
144
 10
90.19134295108995
 20
7.75
 30
0.0
 11
94.810145104606931
 21
15.749999999999989
 31
0.0
  0
LINE
  8
PATTERN_FILL
  6
CONTINUOUS
 62
               7
  5
145
 10
100.58364779650321
 20
25.75
 30
0.0
 11
119.86473588801084
 21
59.145824199702524
 31
0.0
  0
LINE
  8
PATTERN_FILL
  6
CONTINUOUS
 62
               7
  5
146
 10
92.69134295108995
 20
7.75
 30
0.0
 11
97.310145104606931
 21
15.749999999999989
 31
0.0
  0
LINE
  8
PATTERN_FILL
  6
CONTINUOUS
 62
               7
  5
147
 10
103.08364779650321
 20
25.749999999999993
 30
0.0
 11
120.30622908857981
 21
55.58038583536203
 31
0.0
  0
LINE
  8
PATTERN_FILL
  6
CONTINUOUS
 62
               7
  5
148
 10
95.19134295108995
 20
7.7499999999999858
 30
0.0
 11
99.810145104606931
 21
15.75
 31
0.0
  0
LINE
  8
PATTERN_FILL
  6
CONTINUOUS
 62
               7
  5
149
 10
105.58364779650321
 20
25.75
 30
0.0
 11
120.7477222891489
 21
52.014947471021536
 31
0.0
  0
LINE
  8
PATTERN_FILL
  6
CONTINUOUS
 62
               7
  5
14A
 10
97.69134295108995
 20
7.7499999999999929
 30
0.0
 11
102.31014510460693
 21
15.749999999999993
 31
0.0
  0
LINE
  8
PATTERN_FILL
  6
CONTINUOUS
 62
               7
  5
14B
 10
108.08364779650321
 20
25.749999999999993
 30
0.0
 11
121.18921548971787
 21
48.449509106681084
 31
0.0
  0
LINE
  8
PATTERN_FILL
  6
CONTINUOUS
 62
               7
  5
14C
 10
100.19134295108995
 20
7.7499999999999929
 30
0.0
 11
104.81014510460693
 21
15.749999999999989
 31
0.0
  0
LINE
  8
PATTERN_FILL
  6
CONTINUOUS
 62
               7
  5
14D
 10
110.58364779650321
 20
25.75
 30
0.0
 11
121.63070869028684
 21
44.884070742340576
 31
0.0
  0
LINE
  8
PATTERN_FILL
  6
CONTINUOUS
 62
               7
  5
14E
 10
102.69134295108995
 20
7.7499999999999858
 30
0.0
 11
107.31014510460693
 21
15.749999999999989
 31
0.0
  0
LINE
  8
PATTERN_FILL
  6
CONTINUOUS
 62
               7
  5
14F
 10
113.08364779650321
 20
25.749999999999993
 30
0.0
 11
122.07220189085592
 21
41.31863237800011
 31
0.0
  0
LINE
  8
PATTERN_FILL
  6
CONTINUOUS
 62
               7
  5
150
 10
105.19134295108995
 20
7.75
 30
0.0
 11
109.81014510460693
 21
15.749999999999989
 31
0.0
  0
LINE
  8
PATTERN_FILL
  6
CONTINUOUS
 62
               7
  5
151
 10
115.58364779650321
 20
25.749999999999993
 30
0.0
 11
122.51369509142489
 21
37.75319401365963
 31
0.0
  0
LINE
  8
PATTERN_FILL
  6
CONTINUOUS
 62
               7
  5
152
 10
107.69134295108995
 20
7.7499999999999929
 30
0.0
 11
112.31014510460693
 21
15.749999999999993
 31
0.0
  0
LINE
  8
PATTERN_FILL
  6
CONTINUOUS
 62
               7
  5
153
 10
118.08364779650321
 20
25.749999999999993
 30
0.0
 11
122.95518829199386
 21
34.187755649319172
 31
0.0
  0
LINE
  8
PATTERN_FILL
  6
CONTINUOUS
 62
               7
  5
154
 10
110.19134295108995
 20
7.75
 30
0.0
 11
114.81014510460693
 21
15.749999999999989
 31
0.0
  0
LINE
  8
PATTERN_FILL
  6
CONTINUOUS
 62
               7
  5
155
 10
120.58364779650321
 20
25.749999999999993
 30
0.0
 11
123.39668149256295
 21
30.622317284978692
 31
0.0
  0
LINE
  8
PATTERN_FILL
  6
CONTINUOUS
 62
               7
  5
156
 10
112.69134295108995
 20
7.7499999999999929
 30
0.0
 11
117.31014510460693
 21
15.749999999999989
 31
0.0
  0
LINE
  8
PATTERN_FILL
  6
CONTINUOUS
 62
               7
  5
157
 10
123.08364779650321
 20
25.75
 30
0.0
 11
123.83817469313192
 21
27.056878920638198
 31
0.0
  0
LINE
  8
PATTERN_FILL
  6
CONTINUOUS
 62
               7
  5
158
 10
115.19134295108995
 20
7.75
 30
0.0
 11
119.81014510460693
 21
15.749999999999996
 31
0.0
  0
LINE
  8
PATTERN_FILL
  6
CONTINUOUS
 62
               7
  5
159
 10
117.69134295108995
 20
7.7499999999999929
 30
0.0
 11
122.31014510460693
 21
15.749999999999993
 31
0.0
  0
LINE
  8
PATTERN_FILL
  6
CONTINUOUS
 62
               7
  5
15A
 10
120.19134295108995
 20
7.7499999999999929
 30
0.0
 11
121.86162713334249
 21
10.643017066740157
 31
0.0
  0
LINE
  8
PATTERN_FILL
  6
CONTINUOUS
 62
               7
  5
15B
 10
119.95423393883561
 20
58.423050250901049
 30
0.0
 11
116.30136779804411
 21
64.75
 31
0.0
  0
LINE
  8
PATTERN_FILL
  6
CONTINUOUS
 62
               7
  5
15C
 10
120.63680890431476
 20
52.910668711794422
 30
0.0
 11
113.80136779804411
 21
64.75
 31
0.0
  0
LINE
  8
PATTERN_FILL
  6
CONTINUOUS
 62
               7
  5
15D
 10
121.31938386979391
 20
47.398287172687773
 30
0.0
 11
111.30136779804411
 21
64.75
 31
0.0
  0
LINE
  8
PATTERN_FILL
  6
CONTINUOUS
 62
               7
  5
15E
 10
122.00195883527306
 20
41.885905633581125
 30
0.0
 11
108.80136779804411
 21
64.75
 31
0.0
  0
LINE
  8
PATTERN_FILL
  6
CONTINUOUS
 62
               7
  5
15F
 10
122.68453380075221
 20
36.373524094474476
 30
0.0
 11
106.30136779804411
 21
64.75
 31
0.0
  0
LINE
  8
PATTERN_FILL
  6
CONTINUOUS
 62
               7
  5
160
 10
123.36710876623124
 20
30.861142555367842
 30
0.0
 11
103.80136779804411
 21
64.75
 31
0.0
  0
LINE
  8
PATTERN_FILL
  6
CONTINUOUS
 62
               7
  5
161
 10
123.81802829643948
 20
25.75
 30
0.0
 11
101.30136779804411
 21
64.75
 31
0.0
  0
LINE
  8
PATTERN_FILL
  6
CONTINUOUS
 62
               7
  5
162
 10
121.31802829643948
 20
25.749999999999986
 30
0.0
 11
98.801367798044112
 21
64.75
 31
0.0
  0
LINE
  8
PATTERN_FILL
  6
CONTINUOUS
 62
               7
  5
163
 10
118.81802829643948
 20
25.749999999999986
 30
0.0
 11
96.301367798044112
 21
64.75
 31
0.0
  0
LINE
  8
PATTERN_FILL
  6
CONTINUOUS
 62
               7
  5
164
 10
122.42730318660381
 20
15.168425492830515
 30
0.0
 11
122.09153098833576
 21
15.749999999999993
 31
0.0
  0
LINE
  8
PATTERN_FILL
  6
CONTINUOUS
 62
               7
  5
165
 10
116.31802829643948
 20
25.75
 30
0.0
 11
93.801367798044112
 21
64.75
 31
0.0
  0
LINE
  8
PATTERN_FILL
  6
CONTINUOUS
 62
               7
  5
166
 10
121.9823684955976
 20
11.608947964781017
 30
0.0
 11
119.59153098833576
 21
15.75
 31
0.0
  0
LINE
  8
PATTERN_FILL
  6
CONTINUOUS
 62
               7
  5
167
 10
113.81802829643948
 20
25.75
 30
0.0
 11
91.301367798044112
 21
64.75
 31
0.0
  0
LINE
  8
PATTERN_FILL
  6
CONTINUOUS
 62
               7
  5
168
 10
121.5374338045915
 20
8.0494704367314753
 30
0.0
 11
117.09153098833576
 21
15.749999999999993
 31
0.0
  0
LINE
  8
PATTERN_FILL
  6
CONTINUOUS
 62
               7
  5
169
 10
111.31802829643948
 20
25.749999999999986
 30
0.0
 11
88.801367798044112
 21
64.75
 31
0.0
  0
LINE
  8
PATTERN_FILL
  6
CONTINUOUS
 62
               7
  5
16A
 10
119.21033314185274
 20
7.7499999999999929
 30
0.0
 11
114.59153098833576
 21
15.749999999999993
 31
0.0
  0
LINE
  8
PATTERN_FILL
  6
CONTINUOUS
 62
               7
  5
16B
 10
108.81802829643948
 20
25.75
 30
0.0
 11
86.301367798044112
 21
64.75
 31
0.0
  0
LINE
  8
PATTERN_FILL
  6
CONTINUOUS
 62
               7
  5
16C
 10
116.71033314185274
 20
7.7499999999999929
 30
0.0
 11
112.09153098833576
 21
15.749999999999993
 31
0.0
  0
LINE
  8
PATTERN_FILL
  6
CONTINUOUS
 62
               7
  5
16D
 10
106.31802829643948
 20
25.749999999999986
 30
0.0
 11
83.801367798044112
 21
64.75
 31
0.0
  0
LINE
  8
PATTERN_FILL
  6
CONTINUOUS
 62
               7
  5
16E
 10
114.21033314185274
 20
7.7499999999999929
 30
0.0
 11
109.59153098833576
 21
15.749999999999993
 31
0.0
  0
LINE
  8
PATTERN_FILL
  6
CONTINUOUS
 62
               7
  5
16F
 10
103.81802829643948
 20
25.749999999999993
 30
0.0
 11
81.821840068834945
 21
63.848515583059516
 31
0.0
  0
LINE
  8
PATTERN_FILL
  6
CONTINUOUS
 62
               7
  5
170
 10
111.71033314185274
 20
7.7499999999999929
 30
0.0
 11
107.09153098833576
 21
15.749999999999993
 31
0.0
  0
LINE
  8
PATTERN_FILL
  6
CONTINUOUS
 62
               7
  5
171
 10
101.31802829643948
 20
25.75
 30
0.0
 11
80.471094937876728
 21
61.857947759033273
 31
0.0
  0
LINE
  8
PATTERN_FILL
  6
CONTINUOUS
 62
               7
  5
172
 10
109.21033314185274
 20
7.7499999999999929
 30
0.0
 11
104.59153098833576
 21
15.749999999999993
 31
0.0
  0
LINE
  8
PATTERN_FILL
  6
CONTINUOUS
 62
               7
  5
173
 10
98.818028296439479
 20
25.749999999999986
 30
0.0
 11
80.029601737307758
 21
58.292509394692793
 31
0.0
  0
LINE
  8
PATTERN_FILL
  6
CONTINUOUS
 62
               7
  5
174
 10
106.71033314185274
 20
7.7499999999999929
 30
0.0
 11
102.09153098833576
 21
15.749999999999993
 31
0.0
  0
LINE
  8
PATTERN_FILL
  6
CONTINUOUS
 62
               7
  5
175
 10
96.318028296439479
 20
25.749999999999993
 30
0.0
 11
79.588108536738673
 21
54.727071030352285
 31
0.0
  0
LINE
  8
PATTERN_FILL
  6
CONTINUOUS
 62
               7
  5
176
 10
104.21033314185274
 20
7.7499999999999929
 30
0.0
 11
99.591530988335762
 21
15.75
 31
0.0
  0
LINE
  8
PATTERN_FILL
  6
CONTINUOUS
 62
               7
  5
177
 10
93.818028296439479
 20
25.749999999999979
 30
0.0
 11
79.146615336169702
 21
51.161632666011798
 31
0.0
  0
LINE
  8
PATTERN_FILL
  6
CONTINUOUS
 62
               7
  5
178
 10
101.71033314185274
 20
7.7499999999999929
 30
0.0
 11
97.091530988335762
 21
15.749999999999993
 31
0.0
  0
LINE
  8
PATTERN_FILL
  6
CONTINUOUS
 62
               7
  5
179
 10
91.318028296439479
 20
25.75
 30
0.0
 11
78.705122135600732
 21
47.596194301671318
 31
0.0
  0
LINE
  8
PATTERN_FILL
  6
CONTINUOUS
 62
               7
  5
17A
 10
99.210333141852743
 20
7.7499999999999929
 30
0.0
 11
94.591530988335762
 21
15.749999999999993
 31
0.0
  0
LINE
  8
PATTERN_FILL
  6
CONTINUOUS
 62
               7
  5
17B
 10
88.818028296439479
 20
25.75
 30
0.0
 11
78.263628935031647
 21
44.030755937330845
 31
0.0
  0
LINE
  8
PATTERN_FILL
  6
CONTINUOUS
 62
               7
  5
17C
 10
96.710333141852743
 20
7.7499999999999929
 30
0.0
 11
92.091530988335762
 21
15.75
 31
0.0
  0
LINE
  8
PATTERN_FILL
  6
CONTINUOUS
 62
               7
  5
17D
 10
86.318028296439479
 20
25.749999999999986
 30
0.0
 11
77.822135734462677
 21
40.465317572990323
 31
0.0
  0
LINE
  8
PATTERN_FILL
  6
CONTINUOUS
 62
               7
  5
17E
 10
94.210333141852743
 20
7.7499999999999858
 30
0.0
 11
89.591530988335649
 21
15.75
 31
0.0
  0
LINE
  8
PATTERN_FILL
  6
CONTINUOUS
 62
               7
  5
17F
 10
83.818028296439479
 20
25.750000000000007
 30
0.0
 11
77.380642533893706
 21
36.899879208649857
 31
0.0
  0
LINE
  8
PATTERN_FILL
  6
CONTINUOUS
 62
               7
  5
180
 10
91.710333141852743
 20
7.7499999999999858
 30
0.0
 11
87.091530988335649
 21
15.75
 31
0.0
  0
LINE
  8
PATTERN_FILL
  6
CONTINUOUS
 62
               7
  5
181
 10
81.318028296439479
 20
25.75
 30
0.0
 11
76.939149333324622
 21
33.33444084430937
 31
0.0
  0
LINE
  8
PATTERN_FILL
  6
CONTINUOUS
 62
               7
  5
182
 10
89.210333141852743
 20
7.7499999999999929
 30
0.0
 11
84.591530988335762
 21
15.749999999999993
 31
0.0
  0
LINE
  8
PATTERN_FILL
  6
CONTINUOUS
 62
               7
  5
183
 10
78.818028296439479
 20
25.75
 30
0.0
 11
76.497656132755651
 21
29.769002479968876
 31
0.0
  0
LINE
  8
PATTERN_FILL
  6
CONTINUOUS
 62
               7
  5
184
 10
86.710333141852743
 20
7.7499999999999858
 30
0.0
 11
82.091530988335762
 21
15.75
 31
0.0
  0
LINE
  8
PATTERN_FILL
  6
CONTINUOUS
 62
               7
  5
185
 10
76.318028296439479
 20
25.749999999999986
 30
0.0
 11
76.05616293218668
 21
26.203564115628417
 31
0.0
  0
LINE
  8
PATTERN_FILL
  6
CONTINUOUS
 62
               7
  5
186
 10
84.210333141852743
 20
7.7499999999999929
 30
0.0
 11
79.591530988335762
 21
15.749999999999993
 31
0.0
  0
LINE
  8
PATTERN_FILL
  6
CONTINUOUS
 62
               7
  5
187
 10
81.710333141852743
 20
7.7499999999999929
 30
0.0
 11
77.612874093231994
 21
14.847007254143783
 31
0.0
  0
LINE
  8
PATTERN_FILL
  6
CONTINUOUS
 62
               7
  5
188
 10
79.210333141852743
 20
7.7499999999999929
 30
0.0
 11
78.303710423582515
 21
9.3203166113401892
 31
0.0
  0
LINE
  8
SPEC
  6
CONTINUOUS
 62
               7
  5
189
 10
-165.0
 20
243.53181499999999
 30
0.0
 11
130.0
 21
243.53181499999999
 31
0.0
  0
LINE
  8
SPEC
  6
CONTINUOUS
 62
               7
  5
18A
 10
-165.0
 20
236.03181499999999
 30
0.0
 11
130.0
 21
236.03181499999999
 31
0.0
  0
LINE
  8
SPEC
  6
CONTINUOUS
 62
               7
  5
18B
 10
-165.0
 20
206.03181499999999
 30
0.0
 11
130.0
 21
206.03181499999999
 31
0.0
  0
LINE
  8
SPEC
  6
CONTINUOUS
 62
               7
  5
18C
 10
-165.0
 20
213.53181499999999
 30
0.0
 11
130.0
 21
213.53181499999999
 31
0.0
  0
LINE
  8
SPEC
  6
CONTINUOUS
 62
               7
  5
18D
 10
-165.0
 20
221.03181499999999
 30
0.0
 11
130.0
 21
221.03181499999999
 31
0.0
  0
LINE
  8
SPEC
  6
CONTINUOUS
 62
               7
  5
18E
 10
-165.0
 20
198.53181499999999
 30
0.0
 11
130.0
 21
198.53181499999999
 31
0.0
  0
LINE
  8
SPEC
  6
CONTINUOUS
 62
               7
  5
18F
 10
-165.0
 20
191.03181499999999
 30
0.0
 11
130.0
 21
191.03181499999999
 31
0.0
  0
LINE
  8
SPEC
  6
CONTINUOUS
 62
               7
  5
190
 10
-165.0
 20
228.53181499999999
 30
0.0
 11
130.0
 21
228.53181499999999
 31
0.0
  0
LINE
  8
SPEC
  6
CONTINUOUS
 62
               7
  5
191
 10
-165.0
 20
243.53181499999999
 30
0.0
 11
-165.0
 21
168.53181499999999
 31
0.0
  0
TEXT
  8
SPEC
 62
               7
  5
192
 10
-162.5
 20
245.42935500000002
 30
0.0
 40
4.8865234375000002
  1
仕様
  7
_______
 11
-162.5
 21
251.20487843750001
 31
0.0
 73
               3
  0
LINE
  8
SPEC
  6
CONTINUOUS
 62
               7
  5
193
 10
-100.0
 20
243.53181499999999
 30
0.0
 11
-100.0
 21
168.53181499999999
 31
0.0
  0
LINE
  8
SPEC
  6
CONTINUOUS
 62
               7
  5
194
 10
130.0
 20
243.53181499999999
 30
0.0
 11
130.0
 21
168.53181499999999
 31
0.0
  0
LINE
  8
SPEC
  6
CONTINUOUS
 62
               7
  5
195
 10
-165.0
 20
183.53181499999999
 30
0.0
 11
130.0
 21
183.53181499999999
 31
0.0
  0
LINE
  8
SPEC
  6
CONTINUOUS
 62
               7
  5
196
 10
-165.0
 20
176.03181499999999
 30
0.0
 11
130.0
 21
176.03181499999999
 31
0.0
  0
LINE
  8
SPEC
  6
CONTINUOUS
 62
               7
  5
197
 10
-165.0
 20
168.53181499999999
 30
0.0
 11
130.0
 21
168.53181499999999
 31
0.0
  0
TEXT
  8
SPEC
 62
               7
  5
198
 10
-98.245142154854705
 20
184.62431916109782
 30
0.0
 40
3.8006293402777782
  1
51×186mm
  7
_______
 11
-98.245142154854705
 21
189.11639294582005
 31
0.0
 73
               3
  0
TEXT
  8
SPEC
 62
               7
  5
199
 10
-98.096365258467131
 20
176.98832048644999
 30
0.0
 40
3.8006293402777782
  1
320g
  7
_______
 11
-98.096365258467131
 21
181.48039427117223
 31
0.0
 73
               3
  0
TEXT
  8
SPEC
 62
               7
  5
19A
 10
-163.24514215485476
 20
184.62431916109782
 30
0.0
 40
3.8006293402777782
  1
寸法(φ×H)
  7
_______
 11
-163.24514215485476
 21
189.11639294582005
 31
0.0
 73
               3
  0
TEXT
  8
SPEC
 62
               7
  5
19B
 10
-163.13888888888886
 20
177.10003812237278
 30
0.0
 40
3.8006293402777782
  1
質量
  7
_______
 11
-163.13888888888886
 21
181.59211190709502
 31
0.0
 73
               3
  0
TEXT
  8
SPEC
 62
               7
  5
19C
 10
-163.16337126587302
 20
237.27586373919092
 30
0.0
 40
3.8006293402777782
  1
形式
  7
_______
 11
-163.16337126587302
 21
241.76793752391316
 31
0.0
 73
               3
  0
TEXT
  8
SPEC
 62
               7
  5
19D
 10
-98.163371265872911
 20
237.27586373919092
 30
0.0
 40
3.8006293402777782
  1
ダイナミック型 
  7
_______
 11
-98.163371265872911
 21
241.76793752391316
 31
0.0
 73
               3
  0
TEXT
  8
SPEC
 62
               7
  5
19E
 10
-163.16337126587302
 20
229.77586373919092
 30
0.0
 40
3.8006293402777782
  1
指向特性
  7
_______
 11
-163.16337126587302
 21
234.26793752391316
 31
0.0
 73
               3
  0
TEXT
  8
SPEC
 62
               7
  5
19F
 10
-98.163371265872911
 20
229.77586373919092
 30
0.0
 40
3.8006293402777782
  1
カーディオイド
  7
_______
 11
-98.163371265872911
 21
234.26793752391316
 31
0.0
 73
               3
  0
TEXT
  8
SPEC
 62
               7
  5
1A0
 10
-163.16337126587302
 20
222.27586373919092
 30
0.0
 40
3.8006293402777782
  1
周波数特性
  7
_______
 11
-163.16337126587302
 21
226.76793752391316
 31
0.0
 73
               3
  0
TEXT
  8
SPEC
 62
               7
  5
1A1
 10
-98.163371265872911
 20
222.27586373919092
 30
0.0
 40
3.8006293402777782
  1
20Hz～17kHz
  7
_______
 11
-98.163371265872911
 21
226.76793752391316
 31
0.0
 73
               3
  0
TEXT
  8
SPEC
 62
               7
  5
1A2
 10
-163.16337126587302
 20
214.77586373919092
 30
0.0
 40
3.8006293402777782
  1
開回路感度
  7
_______
 11
-163.16337126587302
 21
219.26793752391316
 31
0.0
 73
               3
  0
TEXT
  8
SPEC
 62
               7
  5
1A3
 10
-98.163371265872911
 20
214.77586373919092
 30
0.0
 40
3.8006293402777782
  1
-52dB re 1V/Pa
  7
_______
 11
-98.163371265872911
 21
219.26793752391316
 31
0.0
 73
               3
  0
TEXT
  8
SPEC
 62
               7
  5
1A4
 10
-163.16337126587302
 20
207.27586373919092
 30
0.0
 40
3.8006293402777782
  1
最大音圧レベル
  7
_______
 11
-163.16337126587302
 21
211.76793752391316
 31
0.0
 73
               3
  0
TEXT
  8
SPEC
 62
               7
  5
1A5
 10
-98.163371265872911
 20
207.27586373919092
 30
0.0
 40
3.8006293402777782
  1
160dB SPL(THD 0.5%%%)
  7
_______
 11
-98.163371265872911
 21
211.76793752391316
 31
0.0
 73
               3
  0
TEXT
  8
SPEC
 62
               7
  5
1A6
 10
-163.16337126587302
 20
199.77586373919092
 30
0.0
 40
3.8006293402777782
  1
インピーダンス
  7
_______
 11
-163.16337126587302
 21
204.26793752391316
 31
0.0
 73
               3
  0
TEXT
  8
SPEC
 62
               7
  5
1A7
 10
-98.163371265872911
 20
199.77586373919092
 30
0.0
 40
3.8006293402777782
  1
600Ω以下
  7
_______
 11
-98.163371265872911
 21
204.26793752391316
 31
0.0
 73
               3
  0
TEXT
  8
SPEC
 62
               7
  5
1A8
 10
-163.16337126587302
 20
192.27586373919092
 30
0.0
 40
3.8006293402777782
  1
端子
  7
_______
 11
-163.16337126587302
 21
196.76793752391316
 31
0.0
 73
               3
  0
TEXT
  8
SPEC
 62
               7
  5
1A9
 10
-98.163371265872911
 20
192.27586373919092
 30
0.0
 40
3.8006293402777782
  1
XLR(3P)
  7
_______
 11
-98.163371265872911
 21
196.76793752391316
 31
0.0
 73
               3
  0
TEXT
  8
SPEC
 62
               7
  5
1AA
 10
-163.04462910531669
 20
169.75938177133995
 30
0.0
 40
3.8006293402777782
  1
付属品
  7
_______
 11
-163.04462910531669
 21
174.25145555606218
 31
0.0
 73
               3
  0
TEXT
  8
SPEC
 62
               7
  5
1AB
 10
-97.947588362079557
 20
169.3523218118022
 30
0.0
 40
3.8006293402777782
  1
マイクホルダー、マイクポーチ
  7
_______
 11
-97.947588362079557
 21
173.84439559652444
 31
0.0
 73
               3
  0
TEXT
  8
DIMNSIONS
 62
               7
  5
1AC
 10
-39.999999999999986
 20
-232.81820499999995
 30
0.0
 40
4.8865234375000002
  1
(単位：mm)
  7
_______
 11
-39.999999999999986
 21
-227.04268156249995
 31
0.0
 73
               3
  0
LINE
  8
DIMNSIONS
  6
CONTINUOUS
 62
               7
  5
1AD
 10
-60.855144996256683
 20
88.782717494385054
 30
0.0
 11
-50.0
 21
72.5
 31
0.0
  0
LINE
  8
DIMNSIONS
  6
CONTINUOUS
 62
               7
  5
1AE
 10
-60.855144996256683
 20
88.782717494385054
 30
0.0
 11
-56.947507887634437
 21
85.385860379661196
 31
0.0
  0
LINE
  8
DIMNSIONS
  6
CONTINUOUS
 62
               7
  5
1AF
 10
-60.855144996256683
 20
88.782717494385054
 30
0.0
 11
-59.169460548780982
 21
83.887134385697152
 31
0.0
  0
LINE
  8
DIMNSIONS
  6
CONTINUOUS
 62
               7
  5
1B0
 10
-50.0
 20
72.5
 30
0.0
 11
-24.833333333333258
 21
72.5
 31
0.0
  0
TEXT
  8
DIMNSIONS
 62
               7
  5
1B1
 10
-46.0
 20
73.499999999999986
 30
0.0
 40
5.4294704861111116
  1
φ51.0
  7
_______
 11
-46.0
 21
79.917248263888879
 31
0.0
 73
               3
  0
LINE
  8
DIMNSIONS
  6
CONTINUOUS
 62
               7
  5
1B2
 10
-66.691495321058028
 20
-179.55850467894197
 30
0.0
 11
-43.75
 21
-202.5
 31
0.0
  0
LINE
  8
DIMNSIONS
  6
CONTINUOUS
 62
               7
  5
1B3
 10
-66.691495321058028
 20
-179.55850467894197
 30
0.0
 11
-62.207501618687473
 21
-182.14733965005018
 31
0.0
  0
LINE
  8
DIMNSIONS
  6
CONTINUOUS
 62
               7
  5
1B4
 10
-66.691495321058028
 20
-179.55850467894197
 30
0.0
 11
-64.102660349949801
 21
-184.04249838131253
 31
0.0
  0
LINE
  8
DIMNSIONS
  6
CONTINUOUS
 62
               7
  5
1B5
 10
-43.75
 20
-202.5
 30
0.0
 11
-18.583333333333371
 21
-202.5
 31
0.0
  0
TEXT
  8
DIMNSIONS
 62
               7
  5
1B6
 10
-39.75
 20
-201.5
 30
0.0
 40
5.4294704861111116
  1
φ23.5
  7
_______
 11
-39.75
 21
-195.08275173611113
 31
0.0
 73
               3
  0
LINE
  8
DIMNSIONS
  6
CONTINUOUS
 62
               7
  5
1B7
 10
-88.0
 20
-121.25
 30
0.0
 11
-120.75
 21
-121.25
 31
0.0
  0
LINE
  8
DIMNSIONS
  6
CONTINUOUS
 62
               7
  5
1B8
 10
-96.5
 20
64.75
 30
0.0
 11
-120.75
 21
64.75
 31
0.0
  0
LINE
  8
DIMNSIONS
  6
CONTINUOUS
 62
               7
  5
1B9
 10
-118.75
 20
-121.25
 30
0.0
 11
-118.75
 21
64.75
 31
0.0
  0
LINE
  8
DIMNSIONS
  6
CONTINUOUS
 62
               7
  5
1BA
 10
-118.75
 20
-121.25
 30
0.0
 11
-120.09007959030049
 21
-116.24875488281251
 31
0.0
  0
LINE
  8
DIMNSIONS
  6
CONTINUOUS
 62
               7
  5
1BB
 10
-118.75
 20
-121.25
 30
0.0
 11
-117.40992040969951
 21
-116.24875488281251
 31
0.0
  0
LINE
  8
DIMNSIONS
  6
CONTINUOUS
 62
               7
  5
1BC
 10
-118.75
 20
64.75
 30
0.0
 11
-117.40992040969951
 21
59.748754882812499
 31
0.0
  0
LINE
  8
DIMNSIONS
  6
CONTINUOUS
 62
               7
  5
1BD
 10
-118.75
 20
64.75
 30
0.0
 11
-120.09007959030049
 21
59.748754882812499
 31
0.0
  0
TEXT
  8
DIMNSIONS
 62
               7
  5
1BE
 10
-119.74999999999999
 20
-33.541666666666671
 30
0.0
 40
5.4294704861111116
  1
186
 50
90.0
  7
_______
 11
-126.16724826388888
 21
-33.541666666666671
 31
0.0
 73
               3
  0
LINE
  8
DIMNSIONS
  6
CONTINUOUS
 62
               7
  5
1BF
 10
-88.0
 20
-121.25
 30
0.0
 11
-108.25
 21
-121.25
 31
0.0
  0
LINE
  8
DIMNSIONS
  6
CONTINUOUS
 62
               7
  5
1C0
 10
-94.0
 20
-13.250000000000007
 30
0.0
 11
-108.25
 21
-13.250000000000007
 31
0.0
  0
LINE
  8
DIMNSIONS
  6
CONTINUOUS
 62
               7
  5
1C1
 10
-106.25
 20
-121.25
 30
0.0
 11
-106.25
 21
-13.250000000000007
 31
0.0
  0
LINE
  8
DIMNSIONS
  6
CONTINUOUS
 62
               7
  5
1C2
 10
-106.25
 20
-121.25
 30
0.0
 11
-107.59007959030049
 21
-116.24875488281251
 31
0.0
  0
LINE
  8
DIMNSIONS
  6
CONTINUOUS
 62
               7
  5
1C3
 10
-106.25
 20
-121.25
 30
0.0
 11
-104.90992040969951
 21
-116.24875488281251
 31
0.0
  0
LINE
  8
DIMNSIONS
  6
CONTINUOUS
 62
               7
  5
1C4
 10
-106.25
 20
-13.250000000000007
 30
0.0
 11
-104.90992040969951
 21
-18.251245117187509
 31
0.0
  0
LINE
  8
DIMNSIONS
  6
CONTINUOUS
 62
               7
  5
1C5
 10
-106.25
 20
-13.250000000000007
 30
0.0
 11
-107.59007959030049
 21
-18.251245117187509
 31
0.0
  0
TEXT
  8
DIMNSIONS
 62
               7
  5
1C6
 10
-107.24999999999999
 20
-72.541666666666657
 30
0.0
 40
5.4294704861111116
  1
108
 50
90.0
  7
_______
 11
-113.66724826388888
 21
-72.541666666666657
 31
0.0
 73
               3
  0
TEXT
  8
DATA
 62
               7
  5
1C7
 10
-174.99999999999997
 20
-246.34596277777777
 30
0.0
 40
3.8006293402777782
  1
※仕様及び外観は予告なく変更されることがあります。
  7
_______
 11
-174.99999999999997
 21
-236.91500010416667
 31
0.0
 73
               3
  0
TEXT
  8
DATA
 62
               7
  5
1C8
 10
-174.99999999999997
 20
-246.34596277777777
 30
0.0
 40
3.8006293402777782
  1
　また、同一商品でも若干の個体差があることがあります。ご了承ください。
  7
_______
 11
-174.99999999999997
 21
-241.85388899305556
 31
0.0
 73
               3
  0
LINE
  8
DATA
  6
CONTINUOUS
 62
               7
  5
1C9
 10
-84.0
 20
-121.25
 30
0.0
 11
-86.75
 21
-118.25
 31
0.0
  0
LINE
  8
DATA
  6
CONTINUOUS
 62
               7
  5
1CA
 10
-66.0
 20
-121.25
 30
0.0
 11
-63.25
 21
-118.25
 31
0.0
  0
LINE
  8
DATA
  6
CONTINUOUS
 62
               7
  5
1CB
 10
-84.0
 20
-121.25
 30
0.0
 11
-66.0
 21
-121.25
 31
0.0
  0
LINE
  8
DATA
  6
CONTINUOUS
 62
               7
  5
1CC
 10
-86.75
 20
-118.25
 30
0.0
 11
-90.0
 21
-13.250000000000007
 31
0.0
  0
LINE
  8
DATA
  6
CONTINUOUS
 62
               7
  5
1CD
 10
-63.25
 20
-118.25
 30
0.0
 11
-60.0
 21
-13.250000000000007
 31
0.0
  0
LINE
  8
DATA
  6
CONTINUOUS
 62
               7
  5
1CE
 10
-90.0
 20
-13.250000000000007
 30
0.0
 11
-94.689999999999998
 21
0.1499999999999915
 31
0.0
  0
LINE
  8
DATA
  6
CONTINUOUS
 62
               7
  5
1CF
 10
-94.794999999999959
 20
0.4499999999999886
 30
0.0
 11
-97.0
 21
6.7499999999999929
 31
0.0
  0
LINE
  8
DATA
  6
CONTINUOUS
 62
               7
  5
1D0
 10
-60.0
 20
-13.250000000000007
 30
0.0
 11
-55.309999999999945
 21
0.1499999999999915
 31
0.0
  0
LINE
  8
DATA
  6
CONTINUOUS
 62
               7
  5
1D1
 10
-55.204999999999927
 20
0.4499999999999886
 30
0.0
 11
-53.0
 21
6.7499999999999929
 31
0.0
  0
LINE
  8
DATA
  6
CONTINUOUS
 62
               7
  5
1D2
 10
-55.204999999999927
 20
0.4499999999999886
 30
0.0
 11
-94.794999999999959
 21
0.4499999999999886
 31
0.0
  0
LINE
  8
DATA
  6
CONTINUOUS
 62
               7
  5
1D3
 10
-55.309999999999945
 20
0.1499999999999915
 30
0.0
 11
-94.689999999999998
 21
0.1499999999999915
 31
0.0
  0
LINE
  8
DATA
  6
CONTINUOUS
 62
               7
  5
1D4
 10
-90.0
 20
-13.250000000000007
 30
0.0
 11
-60.0
 21
-13.250000000000007
 31
0.0
  0
LINE
  8
DATA
  6
CONTINUOUS
 62
               7
  5
1D5
 10
-91.5
 20
0.1499999999999915
 30
0.0
 11
-91.5
 21
0.4499999999999886
 31
0.0
  0
LINE
  8
DATA
  6
CONTINUOUS
 62
               7
  5
1D6
 10
-58.5
 20
0.1499999999999915
 30
0.0
 11
-58.5
 21
0.4499999999999886
 31
0.0
  0
LINE
  8
DATA
  6
CONTINUOUS
 62
               7
  5
1D7
 10
-86.75
 20
-118.25
 30
0.0
 11
-63.25
 21
-118.25
 31
0.0
  0
LINE
  8
DATA
  6
CONTINUOUS
 62
               7
  5
1D8
 10
-80.0
 20
-71.75
 30
0.0
 11
-80.0
 21
-48.450000000000017
 31
0.0
  0
LINE
  8
DATA
  6
CONTINUOUS
 62
               7
  5
1D9
 10
-70.5
 20
-72.25
 30
0.0
 11
-79.5
 21
-72.25
 31
0.0
  0
LINE
  8
DATA
  6
CONTINUOUS
 62
               7
  5
1DA
 10
-70.0
 20
-48.450000000000017
 30
0.0
 11
-70.0
 21
-71.75
 31
0.0
  0
LINE
  8
DATA
  6
CONTINUOUS
 62
               7
  5
1DB
 10
-79.5
 20
-47.950000000000017
 30
0.0
 11
-70.5
 21
-47.950000000000017
 31
0.0
  0
LINE
  8
DATA
  6
CONTINUOUS
 62
               7
  5
1DC
 10
-79.199999999999989
 20
-71.950000000000017
 30
0.0
 11
-70.799999999999955
 21
-71.950000000000017
 31
0.0
  0
LINE
  8
DATA
  6
CONTINUOUS
 62
               7
  5
1DD
 10
-79.199999999999989
 20
-51.950000000000017
 30
0.0
 11
-70.799999999999955
 21
-51.950000000000017
 31
0.0
  0
LINE
  8
DATA
  6
CONTINUOUS
 62
               7
  5
1DE
 10
-79.699999999999989
 20
-71.450000000000017
 30
0.0
 11
-79.699999999999989
 21
-52.450000000000017
 31
0.0
  0
LINE
  8
DATA
  6
CONTINUOUS
 62
               7
  5
1DF
 10
-70.299999999999955
 20
-52.450000000000017
 30
0.0
 11
-70.299999999999955
 21
-71.450000000000017
 31
0.0
  0
ARC
  8
DATA
  6
CONTINUOUS
 62
               7
  5
1E0
 10
-79.5
 20
-71.75
 30
0.0
 40
0.5
 50
180.0
 51
270.0
  0
ARC
  8
DATA
  6
CONTINUOUS
 62
               7
  5
1E1
 10
-79.199999999999989
 20
-71.450000000000017
 30
0.0
 40
0.5
 50
180.0
 51
270.0
  0
ARC
  8
DATA
  6
CONTINUOUS
 62
               7
  5
1E2
 10
-70.799999999999955
 20
-71.450000000000017
 30
0.0
 40
0.5
 50
270.0
 51
0.0
  0
ARC
  8
DATA
  6
CONTINUOUS
 62
               7
  5
1E3
 10
-70.5
 20
-71.75
 30
0.0
 40
0.5
 50
270.0
 51
0.0
  0
ARC
  8
DATA
  6
CONTINUOUS
 62
               7
  5
1E4
 10
-79.199999999999989
 20
-52.450000000000017
 30
0.0
 40
0.5
 50
90.0
 51
180.0
  0
ARC
  8
DATA
  6
CONTINUOUS
 62
               7
  5
1E5
 10
-70.799999999999955
 20
-52.450000000000017
 30
0.0
 40
0.5
 50
0.0
 51
90.0
  0
ARC
  8
DATA
  6
CONTINUOUS
 62
               7
  5
1E6
 10
-79.5
 20
-48.450000000000017
 30
0.0
 40
0.5
 50
90.0
 51
180.0
  0
ARC
  8
DATA
  6
CONTINUOUS
 62
               7
  5
1E7
 10
-70.5
 20
-48.450000000000017
 30
0.0
 40
0.5
 50
0.0
 51
90.0
  0
LINE
  8
DATA
  6
CONTINUOUS
 62
               7
  5
1E8
 10
-79.699999999999989
 20
-62.950000000000017
 30
0.0
 11
-70.299999999999955
 21
-62.950000000000017
 31
0.0
  0
LINE
  8
DATA
  6
CONTINUOUS
 62
               7
  5
1E9
 10
-79.699999999999989
 20
-62.050000000000011
 30
0.0
 11
-70.299999999999955
 21
-62.050000000000011
 31
0.0
  0
TEXT
  8
DATA
 62
               7
  5
1EA
 10
-76.519489406213381
 20
-69.184105574857924
 30
0.0
 40
1.6288411458333332
  1
OFF
  7
_______
 11
-76.519489406213381
 21
-67.258931095691267
 31
0.0
 73
               3
  0
TEXT
  8
DATA
 62
               7
  5
1EB
 10
-76.00177176420118
 20
-56.620153454774162
 30
0.0
 40
1.6288411458333332
  1
ON
  7
_______
 11
-76.00177176420118
 21
-54.694978975607491
 31
0.0
 73
               3
  0
LINE
  8
DATA
  6
CONTINUOUS
 62
               7
  5
1EC
 10
-74.100000000000023
 20
-54.238885831232608
 30
0.0
 11
-75.899999999999977
 21
-54.238885831232608
 31
0.0
  0
LINE
  8
DATA
  6
CONTINUOUS
 62
               7
  5
1ED
 10
-75.899999999999977
 20
-54.238885831232608
 30
0.0
 11
-75.0
 21
-52.888885831232614
 31
0.0
  0
LINE
  8
DATA
  6
CONTINUOUS
 62
               7
  5
1EE
 10
-74.100000000000023
 20
-54.238885831232608
 30
0.0
 11
-75.0
 21
-52.888885831232614
 31
0.0
  0
LINE
  8
DATA
  6
CONTINUOUS
 62
               7
  5
1EF
 10
-74.100000000000023
 20
-69.435184946431946
 30
0.0
 11
-75.899999999999977
 21
-69.435184946431946
 31
0.0
  0
LINE
  8
DATA
  6
CONTINUOUS
 62
               7
  5
1F0
 10
-75.899999999999977
 20
-69.435184946431946
 30
0.0
 11
-75.0
 21
-70.78518494643194
 31
0.0
  0
LINE
  8
DATA
  6
CONTINUOUS
 62
               7
  5
1F1
 10
-74.100000000000023
 20
-69.435184946431946
 30
0.0
 11
-75.0
 21
-70.78518494643194
 31
0.0
  0
CIRCLE
  8
DATA
  6
CONTINUOUS
 62
               7
  5
1F2
 10
-75.0
 20
-171.25
 30
0.0
 40
25.5
  0
ARC
  8
DATA
  6
CONTINUOUS
 62
               7
  5
1F3
 10
-75.0
 20
-171.25
 30
0.0
 40
8.9999999999999734
 50
232.28391039456591
 51
219.53449457892094
  0
CIRCLE
  8
DATA
  6
CONTINUOUS
 62
               7
  5
1F4
 10
-75.0
 20
-171.25
 30
0.0
 40
11.75
  0
CIRCLE
  8
DATA
  6
CONTINUOUS
 62
               7
  5
1F5
 10
-75.0
 20
-167.15000000000001
 30
0.0
 40
1.1750000000000114
  0
CIRCLE
  8
DATA
  6
CONTINUOUS
 62
               7
  5
1F6
 10
-79.100000000000023
 20
-170.74447766990176
 30
0.0
 40
1.1750000000000114
  0
CIRCLE
  8
DATA
  6
CONTINUOUS
 62
               7
  5
1F7
 10
-70.899999999999977
 20
-170.74447766990176
 30
0.0
 40
1.1749999999999545
  0
ARC
  8
DATA
  6
CONTINUOUS
 62
               7
  5
1F8
 10
-81.25
 20
-177.70157280533709
 30
0.0
 40
0.9999999999999724
 50
133.72307100194902
 51
318.09533397153609
  0
CIRCLE
  8
DATA
  6
CONTINUOUS
 62
               7
  5
1F9
 10
-75.0
 20
-32.25
 30
0.0
 40
9.0
  0
LINE
  8
DATA
  6
CONTINUOUS
 62
               7
  5
1FA
 10
-9.0
 20
-121.25
 30
0.0
 11
-11.75
 21
-118.25
 31
0.0
  0
LINE
  8
DATA
  6
CONTINUOUS
 62
               7
  5
1FB
 10
9.0
 20
-121.25
 30
0.0
 11
11.75
 21
-118.25
 31
0.0
  0
LINE
  8
DATA
  6
CONTINUOUS
 62
               7
  5
1FC
 10
-9.0
 20
-121.25
 30
0.0
 11
9.0
 21
-121.25
 31
0.0
  0
LINE
  8
DATA
  6
CONTINUOUS
 62
               7
  5
1FD
 10
-11.75
 20
-118.25
 30
0.0
 11
-14.133333333333326
 21
-41.249999999999147
 31
0.0
  0
LINE
  8
DATA
  6
CONTINUOUS
 62
               7
  5
1FE
 10
-14.690476190476147
 20
-23.250000000000853
 30
0.0
 11
-15.0
 21
-13.250000000000007
 31
0.0
  0
LINE
  8
DATA
  6
CONTINUOUS
 62
               7
  5
1FF
 10
11.75
 20
-118.25
 30
0.0
 11
15.0
 21
-13.250000000000007
 31
0.0
  0
LINE
  8
DATA
  6
CONTINUOUS
 62
               7
  5
200
 10
-15.0
 20
-13.250000000000007
 30
0.0
 11
-19.689999999999941
 21
0.1499999999999915
 31
0.0
  0
LINE
  8
DATA
  6
CONTINUOUS
 62
               7
  5
201
 10
-19.794999999999959
 20
0.4499999999999886
 30
0.0
 11
-22.0
 21
6.7499999999999929
 31
0.0
  0
LINE
  8
DATA
  6
CONTINUOUS
 62
               7
  5
202
 10
15.0
 20
-13.250000000000007
 30
0.0
 11
19.690000000000055
 21
0.1499999999999915
 31
0.0
  0
LINE
  8
DATA
  6
CONTINUOUS
 62
               7
  5
203
 10
19.795000000000073
 20
0.4499999999999886
 30
0.0
 11
22.0
 21
6.7499999999999929
 31
0.0
  0
LINE
  8
DATA
  6
CONTINUOUS
 62
               7
  5
204
 10
19.795000000000073
 20
0.4499999999999886
 30
0.0
 11
-19.794999999999959
 21
0.4499999999999886
 31
0.0
  0
LINE
  8
DATA
  6
CONTINUOUS
 62
               7
  5
205
 10
19.690000000000055
 20
0.1499999999999915
 30
0.0
 11
-19.689999999999941
 21
0.1499999999999915
 31
0.0
  0
LINE
  8
DATA
  6
CONTINUOUS
 62
               7
  5
206
 10
-15.0
 20
-13.250000000000007
 30
0.0
 11
15.0
 21
-13.250000000000007
 31
0.0
  0
LINE
  8
DATA
  6
CONTINUOUS
 62
               7
  5
207
 10
-16.5
 20
0.1499999999999915
 30
0.0
 11
-16.5
 21
0.4499999999999886
 31
0.0
  0
LINE
  8
DATA
  6
CONTINUOUS
 62
               7
  5
208
 10
16.5
 20
0.1499999999999915
 30
0.0
 11
16.5
 21
0.4499999999999886
 31
0.0
  0
LINE
  8
DATA
  6
CONTINUOUS
 62
               7
  5
209
 10
-11.75
 20
-118.25
 30
0.0
 11
11.75
 21
-118.25
 31
0.0
  0
LINE
  8
DATA
  6
CONTINUOUS
 62
               7
  5
20A
 10
91.0
 20
-121.25
 30
0.0
 11
88.25
 21
-118.25
 31
0.0
  0
LINE
  8
DATA
  6
CONTINUOUS
 62
               7
  5
20B
 10
109.0
 20
-121.25
 30
0.0
 11
111.75
 21
-118.25
 31
0.0
  0
LINE
  8
DATA
  6
CONTINUOUS
 62
               7
  5
20C
 10
91.0
 20
-121.25
 30
0.0
 11
109.0
 21
-121.25
 31
0.0
  0
LINE
  8
DATA
  6
CONTINUOUS
 62
               7
  5
20D
 10
88.25
 20
-118.25
 30
0.0
 11
85.0
 21
-13.250000000000007
 31
0.0
  0
LINE
  8
DATA
  6
CONTINUOUS
 62
               7
  5
20E
 10
111.75
 20
-118.25
 30
0.0
 11
115.0
 21
-13.250000000000007
 31
0.0
  0
LINE
  8
DATA
  6
CONTINUOUS
 62
               7
  5
20F
 10
85.0
 20
-13.250000000000007
 30
0.0
 11
80.310000000000059
 21
0.1499999999999915
 31
0.0
  0
LINE
  8
DATA
  6
CONTINUOUS
 62
               7
  5
210
 10
80.205000000000041
 20
0.4499999999999886
 30
0.0
 11
78.0
 21
6.7499999999999929
 31
0.0
  0
LINE
  8
DATA
  6
CONTINUOUS
 62
               7
  5
211
 10
115.0
 20
-13.250000000000007
 30
0.0
 11
119.69000000000005
 21
0.1499999999999915
 31
0.0
  0
LINE
  8
DATA
  6
CONTINUOUS
 62
               7
  5
212
 10
119.79500000000007
 20
0.4499999999999886
 30
0.0
 11
122.0
 21
6.7499999999999929
 31
0.0
  0
LINE
  8
DATA
  6
CONTINUOUS
 62
               7
  5
213
 10
119.79500000000007
 20
0.4499999999999886
 30
0.0
 11
80.205000000000041
 21
0.4499999999999886
 31
0.0
  0
LINE
  8
DATA
  6
CONTINUOUS
 62
               7
  5
214
 10
119.69000000000005
 20
0.1499999999999915
 30
0.0
 11
80.310000000000059
 21
0.1499999999999915
 31
0.0
  0
LINE
  8
DATA
  6
CONTINUOUS
 62
               7
  5
215
 10
85.0
 20
-13.250000000000007
 30
0.0
 11
115.0
 21
-13.250000000000007
 31
0.0
  0
LINE
  8
DATA
  6
CONTINUOUS
 62
               7
  5
216
 10
83.5
 20
0.1499999999999915
 30
0.0
 11
83.5
 21
0.4499999999999886
 31
0.0
  0
LINE
  8
DATA
  6
CONTINUOUS
 62
               7
  5
217
 10
116.5
 20
0.1499999999999915
 30
0.0
 11
116.5
 21
0.4499999999999886
 31
0.0
  0
LINE
  8
DATA
  6
CONTINUOUS
 62
               7
  5
218
 10
88.25
 20
-118.25
 30
0.0
 11
111.75
 21
-118.25
 31
0.0
  0
ARC
  8
DATA
  6
CONTINUOUS
 62
               7
  5
219
 10
-40.469017622797082
 20
-33.056529683789535
 30
0.0
 40
27.580812584420535
 50
342.71821139785595
 51
20.8275381452105
  0
LINE
  8
DATA
  6
CONTINUOUS
 62
               7
  5
21A
 10
-13.734092357581744
 20
-39.834803348983115
 30
0.0
 11
-14.204475908281779
 21
-24.63779632636539
 31
0.0
  0
CIRCLE
  8
DATA
  6
CONTINUOUS
 62
               7
  5
21B
 10
100.0
 20
-104.25
 30
0.0
 40
2.3500000000000227
  0
LINE
  8
DATA
  6
CONTINUOUS
 62
               7
  5
21C
 10
98.75
 20
-104.25
 30
0.0
 11
101.25
 21
-104.25
 31
0.0
  0
LINE
  8
DATA
  6
CONTINUOUS
 62
               7
  5
21D
 10
100.0
 20
-105.50000000000003
 30
0.0
 11
100.0
 21
-103.0
 31
0.0
  0
CIRCLE
  8
DATA
  6
CONTINUOUS
 62
               7
  5
21E
 10
-75.0
 20
-171.25
 30
0.0
 40
23.5
  0
CIRCLE
  8
DATA
  6
CONTINUOUS
 62
               7
  5
21F
 10
-75.0
 20
-171.25
 30
0.0
 40
15.0
  0
CIRCLE
  8
DATA
  6
CONTINUOUS
 62
               7
  5
220
 10
-75.0
 20
110.0
 30
0.0
 40
25.5
  0
ARC
  8
DATA
  6
CONTINUOUS
 62
               7
  5
221
 10
-75.0
 20
110.00000000000006
 30
0.0
 40
24.000000000000011
 50
215.3071914203523
 51
204.69280857965057
  0
CIRCLE
  8
DATA
  6
CONTINUOUS
 62
               7
  5
222
 10
-75.0
 20
110.0
 30
0.0
 40
17.5
  0
CIRCLE
  8
DATA
  6
CONTINUOUS
 62
               7
  5
223
 10
-75.0
 20
110.0
 30
0.0
 40
19.5
  0
LINE
  8
DATA
  6
CONTINUOUS
 62
               7
  5
224
 10
-94.585561306829504
 20
96.12895864412377
 30
0.0
 11
-96.805454844548763
 21
99.973927038847449
 31
0.0
  0
LINE
  8
DATA
  6
CONTINUOUS
 62
               7
  5
225
 10
-97.0
 20
6.7499999999999929
 30
0.0
 11
-53.0
 21
6.7499999999999929
 31
0.0
  0
LINE
  8
DATA
  6
CONTINUOUS
 62
               7
  5
226
 10
-97.0
 20
6.7499999999999929
 30
0.0
 11
-96.5
 21
7.7499999999999929
 31
0.0
  0
LINE
  8
DATA
  6
CONTINUOUS
 62
               7
  5
227
 10
-53.0
 20
6.7499999999999929
 30
0.0
 11
-53.5
 21
7.7499999999999929
 31
0.0
  0
LINE
  8
DATA
  6
CONTINUOUS
 62
               7
  5
228
 10
-53.5
 20
7.7499999999999929
 30
0.0
 11
-96.5
 21
7.7499999999999929
 31
0.0
  0
LINE
  8
DATA
  6
CONTINUOUS
 62
               7
  5
229
 10
-22.0
 20
6.7499999999999929
 30
0.0
 11
22.0
 21
6.7499999999999929
 31
0.0
  0
LINE
  8
DATA
  6
CONTINUOUS
 62
               7
  5
22A
 10
-22.0
 20
6.7499999999999929
 30
0.0
 11
-21.5
 21
7.7499999999999929
 31
0.0
  0
LINE
  8
DATA
  6
CONTINUOUS
 62
               7
  5
22B
 10
22.0
 20
6.7499999999999929
 30
0.0
 11
21.5
 21
7.7499999999999929
 31
0.0
  0
LINE
  8
DATA
  6
CONTINUOUS
 62
               7
  5
22C
 10
21.5
 20
7.7499999999999929
 30
0.0
 11
-21.5
 21
7.7499999999999929
 31
0.0
  0
LINE
  8
DATA
  6
CONTINUOUS
 62
               7
  5
22D
 10
78.0
 20
6.7499999999999929
 30
0.0
 11
122.0
 21
6.7499999999999929
 31
0.0
  0
LINE
  8
DATA
  6
CONTINUOUS
 62
               7
  5
22E
 10
78.0
 20
6.7499999999999929
 30
0.0
 11
78.5
 21
7.7499999999999929
 31
0.0
  0
LINE
  8
DATA
  6
CONTINUOUS
 62
               7
  5
22F
 10
122.0
 20
6.7499999999999929
 30
0.0
 11
121.5
 21
7.7499999999999929
 31
0.0
  0
LINE
  8
DATA
  6
CONTINUOUS
 62
               7
  5
230
 10
121.5
 20
7.7499999999999929
 30
0.0
 11
78.5
 21
7.7499999999999929
 31
0.0
  0
LINE
  8
DATA
  6
CONTINUOUS
 62
               7
  5
231
 10
-100.5
 20
24.749999999999993
 30
0.0
 11
-100.0
 21
25.749999999999993
 31
0.0
  0
LINE
  8
DATA
  6
CONTINUOUS
 62
               7
  5
232
 10
-100.0
 20
25.749999999999993
 30
0.0
 11
-50.0
 21
25.749999999999993
 31
0.0
  0
LINE
  8
DATA
  6
CONTINUOUS
 62
               7
  5
233
 10
-98.5
 20
15.749999999999993
 30
0.0
 11
-100.5
 21
24.749999999999993
 31
0.0
  0
LINE
  8
DATA
  6
CONTINUOUS
 62
               7
  5
234
 10
-97.5
 20
15.749999999999993
 30
0.0
 11
-96.5
 21
7.7499999999999929
 31
0.0
  0
LINE
  8
DATA
  6
CONTINUOUS
 62
               7
  5
235
 10
-52.5
 20
15.749999999999993
 30
0.0
 11
-53.5
 21
7.7499999999999929
 31
0.0
  0
LINE
  8
DATA
  6
CONTINUOUS
 62
               7
  5
236
 10
-98.5
 20
15.749999999999993
 30
0.0
 11
-51.5
 21
15.749999999999993
 31
0.0
  0
LINE
  8
DATA
  6
CONTINUOUS
 62
               7
  5
237
 10
-22.5
 20
15.749999999999993
 30
0.0
 11
-21.5
 21
7.7499999999999929
 31
0.0
  0
LINE
  8
DATA
  6
CONTINUOUS
 62
               7
  5
238
 10
22.5
 20
15.749999999999993
 30
0.0
 11
21.5
 21
7.7499999999999929
 31
0.0
  0
LINE
  8
DATA
  6
CONTINUOUS
 62
               7
  5
239
 10
77.5
 20
15.749999999999993
 30
0.0
 11
78.5
 21
7.7499999999999929
 31
0.0
  0
LINE
  8
DATA
  6
CONTINUOUS
 62
               7
  5
23A
 10
122.5
 20
15.749999999999993
 30
0.0
 11
121.5
 21
7.7499999999999929
 31
0.0
  0
LINE
  8
DATA
  6
CONTINUOUS
 62
               7
  5
23B
 10
-49.5
 20
24.749999999999993
 30
0.0
 11
-50.0
 21
25.749999999999993
 31
0.0
  0
LINE
  8
DATA
  6
CONTINUOUS
 62
               7
  5
23C
 10
-51.5
 20
15.749999999999993
 30
0.0
 11
-49.5
 21
24.749999999999993
 31
0.0
  0
LINE
  8
DATA
  6
CONTINUOUS
 62
               7
  5
23D
 10
-25.5
 20
24.749999999999993
 30
0.0
 11
-25.0
 21
25.749999999999993
 31
0.0
  0
LINE
  8
DATA
  6
CONTINUOUS
 62
               7
  5
23E
 10
-25.0
 20
25.749999999999993
 30
0.0
 11
25.0
 21
25.749999999999993
 31
0.0
  0
LINE
  8
DATA
  6
CONTINUOUS
 62
               7
  5
23F
 10
-23.5
 20
15.749999999999993
 30
0.0
 11
-25.5
 21
24.749999999999993
 31
0.0
  0
LINE
  8
DATA
  6
CONTINUOUS
 62
               7
  5
240
 10
23.5
 20
15.749999999999993
 30
0.0
 11
25.5
 21
24.749999999999993
 31
0.0
  0
LINE
  8
DATA
  6
CONTINUOUS
 62
               7
  5
241
 10
-23.5
 20
15.749999999999993
 30
0.0
 11
23.5
 21
15.749999999999993
 31
0.0
  0
LINE
  8
DATA
  6
CONTINUOUS
 62
               7
  5
242
 10
25.5
 20
24.749999999999993
 30
0.0
 11
25.0
 21
25.749999999999993
 31
0.0
  0
LINE
  8
DATA
  6
CONTINUOUS
 62
               7
  5
243
 10
74.5
 20
24.749999999999993
 30
0.0
 11
75.0
 21
25.749999999999993
 31
0.0
  0
LINE
  8
DATA
  6
CONTINUOUS
 62
               7
  5
244
 10
75.0
 20
25.749999999999993
 30
0.0
 11
125.0
 21
25.749999999999993
 31
0.0
  0
LINE
  8
DATA
  6
CONTINUOUS
 62
               7
  5
245
 10
125.5
 20
24.749999999999993
 30
0.0
 11
125.0
 21
25.749999999999993
 31
0.0
  0
LINE
  8
DATA
  6
CONTINUOUS
 62
               7
  5
246
 10
76.5
 20
15.749999999999993
 30
0.0
 11
74.5
 21
24.749999999999993
 31
0.0
  0
LINE
  8
DATA
  6
CONTINUOUS
 62
               7
  5
247
 10
123.5
 20
15.749999999999993
 30
0.0
 11
125.5
 21
24.749999999999993
 31
0.0
  0
LINE
  8
DATA
  6
CONTINUOUS
 62
               7
  5
248
 10
76.5
 20
15.749999999999993
 30
0.0
 11
123.5
 21
15.749999999999993
 31
0.0
  0
LINE
  8
DATA
  6
CONTINUOUS
 62
               7
  5
249
 10
82.5
 20
64.75
 30
0.0
 11
117.5
 21
64.75
 31
0.0
  0
LINE
  8
DATA
  6
CONTINUOUS
 62
               7
  5
24A
 10
80.5
 20
62.091381065107392
 30
0.0
 11
82.5
 21
64.75
 31
0.0
  0
LINE
  8
DATA
  6
CONTINUOUS
 62
               7
  5
24B
 10
76.0
 20
25.749999999999993
 30
0.0
 11
80.5
 21
62.091381065107392
 31
0.0
  0
LINE
  8
DATA
  6
CONTINUOUS
 62
               7
  5
24C
 10
124.0
 20
25.749999999999993
 30
0.0
 11
119.5
 21
62.091381065107392
 31
0.0
  0
LINE
  8
DATA
  6
CONTINUOUS
 62
               7
  5
24D
 10
119.5
 20
62.091381065107392
 30
0.0
 11
117.5
 21
64.75
 31
0.0
  0
LINE
  8
DATA
  6
CONTINUOUS
 62
               7
  5
24E
 10
-92.5
 20
64.75
 30
0.0
 11
-57.5
 21
64.75
 31
0.0
  0
LINE
  8
DATA
  6
CONTINUOUS
 62
               7
  5
24F
 10
-94.5
 20
62.091381065107392
 30
0.0
 11
-92.5
 21
64.75
 31
0.0
  0
LINE
  8
DATA
  6
CONTINUOUS
 62
               7
  5
250
 10
-55.5
 20
62.091381065107392
 30
0.0
 11
-57.5
 21
64.75
 31
0.0
  0
LINE
  8
DATA
  6
CONTINUOUS
 62
               7
  5
251
 10
-99.0
 20
25.749999999999993
 30
0.0
 11
-94.5
 21
62.091381065107392
 31
0.0
  0
LINE
  8
DATA
  6
CONTINUOUS
 62
               7
  5
252
 10
-51.0
 20
25.749999999999993
 30
0.0
 11
-55.5
 21
62.091381065107392
 31
0.0
  0
LINE
  8
DATA
  6
CONTINUOUS
 62
               7
  5
253
 10
-17.5
 20
64.75
 30
0.0
 11
17.5
 21
64.75
 31
0.0
  0
LINE
  8
DATA
  6
CONTINUOUS
 62
               7
  5
254
 10
-19.5
 20
62.091381065107392
 30
0.0
 11
-17.5
 21
64.75
 31
0.0
  0
LINE
  8
DATA
  6
CONTINUOUS
 62
               7
  5
255
 10
19.5
 20
62.091381065107392
 30
0.0
 11
17.5
 21
64.75
 31
0.0
  0
LINE
  8
DATA
  6
CONTINUOUS
 62
               7
  5
256
 10
-24.0
 20
25.749999999999993
 30
0.0
 11
-19.5
 21
62.091381065107392
 31
0.0
  0
LINE
  8
DATA
  6
CONTINUOUS
 62
               7
  5
257
 10
24.0
 20
25.749999999999993
 30
0.0
 11
19.5
 21
62.091381065107392
 31
0.0
  0
TEXT
  8
DATA
 62
               7
  5
258
 10
-79.21084464102978
 20
-114.77931724409841
 30
0.0
 40
2.6604405381944445
  1
D5 CS
  7
_______
 11
-79.21084464102978
 21
-111.63486559479284
 31
0.0
 73
               3
  0
TEXT
  8
DATA
 62
               7
  5
259
 10
-79.477778572186935
 20
-110.19858050854216
 30
0.0
 40
4.5227489149305562
  1
AKG
  7
_______
 11
-79.477778572186935
 21
-104.85301270472272
 31
0.0
 73
               3
  0
TEXT
  8
DATA
 62
               7
  5
25A
 10
100.0
 20
-235.095405
 30
0.0
 40
4.8865234375000002
  1
D5 CS
  7
_______
 11
100.0
 21
-229.3198815625
 31
0.0
 73
               3
  0
TEXT
  8
DATA
 62
               7
  5
25B
 10
100.0
 20
-220.595405
 30
0.0
 40
4.8865234375000002
  1
AKG
  7
_______
 11
100.0
 21
-214.8198815625
 31
0.0
 73
               3
  0
TEXT
  8
DATA
 62
               7
  5
25C
 10
95.0
 20
-227.25298500000002
 30
0.0
 40
3.2576874218749996
  1
ハンドヘルド型マイクロホン
  7
_______
 11
95.0
 21
-223.40262997812502
 31
0.0
 73
               3
  0
ENDSEC
  0
EOF
